  0
SECTION
  2
HEADER
  9
$ACADVER
  1
AC1021
  9
$ACADMAINTVER
 70
    25
  9
$DWGCODEPAGE
  3
ANSI_1252
  9
$INSBASE
 10
0.0
 20
0.0
 30
0.0
  9
$EXTMIN
 10
-57.105
 20
-8.2631
 30
0.0
  9
$EXTMAX
 10
83.095
 20
99.8022
 30
0.0
  9
$LIMMIN
 10
0.0
 20
0.0
  9
$LIMMAX
 10
12.0
 20
9.0
  9
$ORTHOMODE
 70
     0
  9
$REGENMODE
 70
     1
  9
$FILLMODE
 70
     1
  9
$QTEXTMODE
 70
     0
  9
$MIRRTEXT
 70
     1
  9
$LTSCALE
 40
1.0
  9
$ATTMODE
 70
     1
  9
$TEXTSIZE
 40
0.2
  9
$TRACEWID
 40
0.05
  9
$TEXTSTYLE
  7
Standard
  9
$CLAYER
  8
0
  9
$CELTYPE
  6
ByLayer
  9
$CECOLOR
 62
   256
  9
$CELTSCALE
 40
1.0
  9
$DISPSILH
 70
     0
  9
$DIMSCALE
 40
1.0
  9
$DIMASZ
 40
0.18
  9
$DIMEXO
 40
0.0625
  9
$DIMDLI
 40
0.38
  9
$DIMRND
 40
0.0
  9
$DIMDLE
 40
0.0
  9
$DIMEXE
 40
0.18
  9
$DIMTP
 40
0.0
  9
$DIMTM
 40
0.0
  9
$DIMTXT
 40
0.18
  9
$DIMCEN
 40
0.09
  9
$DIMTSZ
 40
0.0
  9
$DIMTOL
 70
     0
  9
$DIMLIM
 70
     0
  9
$DIMTIH
 70
     1
  9
$DIMTOH
 70
     1
  9
$DIMSE1
 70
     0
  9
$DIMSE2
 70
     0
  9
$DIMTAD
 70
     0
  9
$DIMZIN
 70
     0
  9
$DIMBLK
  1

  9
$DIMASO
 70
     1
  9
$DIMSHO
 70
     1
  9
$DIMPOST
  1

  9
$DIMAPOST
  1

  9
$DIMALT
 70
     0
  9
$DIMALTD
 70
     2
  9
$DIMALTF
 40
25.4
  9
$DIMLFAC
 40
1.0
  9
$DIMTOFL
 70
     0
  9
$DIMTVP
 40
0.0
  9
$DIMTIX
 70
     0
  9
$DIMSOXD
 70
     0
  9
$DIMSAH
 70
     0
  9
$DIMBLK1
  1

  9
$DIMBLK2
  1

  9
$DIMSTYLE
  2
Standard
  9
$DIMCLRD
 70
     0
  9
$DIMCLRE
 70
     0
  9
$DIMCLRT
 70
     0
  9
$DIMTFAC
 40
1.0
  9
$DIMGAP
 40
0.09
  9
$DIMJUST
 70
     0
  9
$DIMSD1
 70
     0
  9
$DIMSD2
 70
     0
  9
$DIMTOLJ
 70
     1
  9
$DIMTZIN
 70
     0
  9
$DIMALTZ
 70
     0
  9
$DIMALTTZ
 70
     0
  9
$DIMUPT
 70
     0
  9
$DIMDEC
 70
     4
  9
$DIMTDEC
 70
     4
  9
$DIMALTU
 70
     2
  9
$DIMALTTD
 70
     2
  9
$DIMTXSTY
  7
Standard
  9
$DIMAUNIT
 70
     0
  9
$DIMADEC
 70
     0
  9
$DIMALTRND
 40
0.0
  9
$DIMAZIN
 70
     0
  9
$DIMDSEP
 70
    46
  9
$DIMATFIT
 70
     3
  9
$DIMFRAC
 70
     0
  9
$DIMLDRBLK
  1

  9
$DIMLUNIT
 70
     2
  9
$DIMLWD
 70
    -2
  9
$DIMLWE
 70
    -2
  9
$DIMTMOVE
 70
     0
  9
$DIMFXL
 40
1.0
  9
$DIMFXLON
 70
     0
  9
$DIMJOGANG
 40
0.7853981633974483
  9
$DIMTFILL
 70
     0
  9
$DIMTFILLCLR
 70
     0
  9
$DIMARCSYM
 70
     0
  9
$DIMLTYPE
  6

  9
$DIMLTEX1
  6

  9
$DIMLTEX2
  6

  9
$LUNITS
 70
     2
  9
$LUPREC
 70
     4
  9
$SKETCHINC
 40
0.1
  9
$FILLETRAD
 40
0.5
  9
$AUNITS
 70
     0
  9
$AUPREC
 70
     0
  9
$MENU
  1
.
  9
$ELEVATION
 40
0.0
  9
$PELEVATION
 40
0.0
  9
$THICKNESS
 40
0.0
  9
$LIMCHECK
 70
     0
  9
$CHAMFERA
 40
0.0
  9
$CHAMFERB
 40
0.0
  9
$CHAMFERC
 40
0.0
  9
$CHAMFERD
 40
0.0
  9
$SKPOLY
 70
     0
  9
$TDCREATE
 40
2458759.816835822
  9
$TDUCREATE
 40
2458759.733502489
  9
$TDUPDATE
 40
2458759.816835949
  9
$TDUUPDATE
 40
2458759.733502616
  9
$TDINDWG
 40
0.0000000116
  9
$TDUSRTIMER
 40
0.0000000116
  9
$USRTIMER
 70
     1
  9
$ANGBASE
 50
0.0
  9
$ANGDIR
 70
     0
  9
$PDMODE
 70
     0
  9
$PDSIZE
 40
0.0
  9
$PLINEWID
 40
0.0
  9
$SPLFRAME
 70
     0
  9
$SPLINETYPE
 70
     6
  9
$SPLINESEGS
 70
     8
  9
$HANDSEED
  5
E7
  9
$SURFTAB1
 70
     6
  9
$SURFTAB2
 70
     6
  9
$SURFTYPE
 70
     6
  9
$SURFU
 70
     6
  9
$SURFV
 70
     6
  9
$UCSBASE
  2

  9
$UCSNAME
  2

  9
$UCSORG
 10
0.0
 20
0.0
 30
0.0
  9
$UCSXDIR
 10
1.0
 20
0.0
 30
0.0
  9
$UCSYDIR
 10
0.0
 20
1.0
 30
0.0
  9
$UCSORTHOREF
  2

  9
$UCSORTHOVIEW
 70
     0
  9
$UCSORGTOP
 10
0.0
 20
0.0
 30
0.0
  9
$UCSORGBOTTOM
 10
0.0
 20
0.0
 30
0.0
  9
$UCSORGLEFT
 10
0.0
 20
0.0
 30
0.0
  9
$UCSORGRIGHT
 10
0.0
 20
0.0
 30
0.0
  9
$UCSORGFRONT
 10
0.0
 20
0.0
 30
0.0
  9
$UCSORGBACK
 10
0.0
 20
0.0
 30
0.0
  9
$PUCSBASE
  2

  9
$PUCSNAME
  2

  9
$PUCSORG
 10
0.0
 20
0.0
 30
0.0
  9
$PUCSXDIR
 10
1.0
 20
0.0
 30
0.0
  9
$PUCSYDIR
 10
0.0
 20
1.0
 30
0.0
  9
$PUCSORTHOREF
  2

  9
$PUCSORTHOVIEW
 70
     0
  9
$PUCSORGTOP
 10
0.0
 20
0.0
 30
0.0
  9
$PUCSORGBOTTOM
 10
0.0
 20
0.0
 30
0.0
  9
$PUCSORGLEFT
 10
0.0
 20
0.0
 30
0.0
  9
$PUCSORGRIGHT
 10
0.0
 20
0.0
 30
0.0
  9
$PUCSORGFRONT
 10
0.0
 20
0.0
 30
0.0
  9
$PUCSORGBACK
 10
0.0
 20
0.0
 30
0.0
  9
$USERI1
 70
     0
  9
$USERI2
 70
     0
  9
$USERI3
 70
     0
  9
$USERI4
 70
     0
  9
$USERI5
 70
     0
  9
$USERR1
 40
0.0
  9
$USERR2
 40
0.0
  9
$USERR3
 40
0.0
  9
$USERR4
 40
0.0
  9
$USERR5
 40
0.0
  9
$WORLDVIEW
 70
     1
  9
$SHADEDGE
 70
     3
  9
$SHADEDIF
 70
    70
  9
$TILEMODE
 70
     1
  9
$MAXACTVP
 70
    64
  9
$PINSBASE
 10
0.0
 20
0.0
 30
0.0
  9
$PLIMCHECK
 70
     0
  9
$PEXTMIN
 10
1.000000000000000E+20
 20
1.000000000000000E+20
 30
1.000000000000000E+20
  9
$PEXTMAX
 10
-1.000000000000000E+20
 20
-1.000000000000000E+20
 30
-1.000000000000000E+20
  9
$PLIMMIN
 10
0.0
 20
0.0
  9
$PLIMMAX
 10
12.0
 20
9.0
  9
$UNITMODE
 70
     0
  9
$VISRETAIN
 70
     1
  9
$PLINEGEN
 70
     0
  9
$PSLTSCALE
 70
     1
  9
$TREEDEPTH
 70
  3020
  9
$CMLSTYLE
  2
Standard
  9
$CMLJUST
 70
     0
  9
$CMLSCALE
 40
1.0
  9
$PROXYGRAPHICS
 70
     1
  9
$MEASUREMENT
 70
     0
  9
$CELWEIGHT
370
    -1
  9
$ENDCAPS
280
     0
  9
$JOINSTYLE
280
     0
  9
$LWDISPLAY
290
     0
  9
$INSUNITS
 70
     4
  9
$HYPERLINKBASE
  1

  9
$STYLESHEET
  1

  9
$XEDIT
290
     1
  9
$CEPSNTYPE
380
     0
  9
$PSTYLEMODE
290
     1
  9
$FINGERPRINTGUID
  2
{8E8B3254-6FCB-4327-8B77-168911107590}
  9
$VERSIONGUID
  2
{FAEB1C32-E019-11D5-929B-00C0DF256EC4}
  9
$EXTNAMES
290
     1
  9
$PSVPSCALE
 40
0.0
  9
$OLESTARTUP
290
     0
  9
$SORTENTS
280
   127
  9
$INDEXCTL
280
     0
  9
$HIDETEXT
280
     1
  9
$XCLIPFRAME
290
     0
  9
$HALOGAP
280
     0
  9
$OBSCOLOR
 70
   257
  9
$OBSLTYPE
280
     0
  9
$INTERSECTIONDISPLAY
280
     0
  9
$INTERSECTIONCOLOR
 70
   257
  9
$DIMASSOC
280
     2
  9
$PROJECTNAME
  1

  9
$CAMERADISPLAY
290
     0
  9
$LENSLENGTH
 40
50.0
  9
$CAMERAHEIGHT
 40
0.0
  9
$STEPSPERSEC
 40
2.0
  9
$STEPSIZE
 40
6.0
  9
$3DDWFPREC
 40
2.0
  9
$PSOLWIDTH
 40
0.25
  9
$PSOLHEIGHT
 40
4.0
  9
$LOFTANG1
 40
1.570796326794897
  9
$LOFTANG2
 40
1.570796326794897
  9
$LOFTMAG1
 40
0.0
  9
$LOFTMAG2
 40
0.0
  9
$LOFTPARAM
 70
     7
  9
$LOFTNORMALS
280
     1
  9
$LATITUDE
 40
37.795
  9
$LONGITUDE
 40
-122.394
  9
$NORTHDIRECTION
 40
0.0
  9
$TIMEZONE
 70
 -8000
  9
$LIGHTGLYPHDISPLAY
280
     1
  9
$TILEMODELIGHTSYNCH
280
     1
  9
$CMATERIAL
347
44
  9
$SOLIDHIST
280
     0
  9
$SHOWHIST
280
     1
  9
$DWFFRAME
280
     2
  9
$DGNFRAME
280
     2
  9
$REALWORLDSCALE
290
     1
  9
$INTERFERECOLOR
 62
   256
  9
$CSHADOW
280
     0
  9
$SHADOWPLANELOCATION
 40
0.0
  0
ENDSEC
  0
SECTION
  2
CLASSES
  0
CLASS
  1
ACDBDICTIONARYWDFLT
  2
AcDbDictionaryWithDefault
  3
ObjectDBX Classes
 90
        0
 91
        4
280
     0
281
     0
  0
CLASS
  1
VISUALSTYLE
  2
AcDbVisualStyle
  3
ObjectDBX Classes
 90
     4095
 91
        4
280
     0
281
     0
  0
CLASS
  1
MATERIAL
  2
AcDbMaterial
  3
ObjectDBX Classes
 90
     1153
 91
        4
280
     0
281
     0
  0
CLASS
  1
SCALE
  2
AcDbScale
  3
ObjectDBX Classes
 90
     1153
 91
        4
280
     0
281
     0
  0
CLASS
  1
TABLESTYLE
  2
AcDbTableStyle
  3
ObjectDBX Classes
 90
     4095
 91
        4
280
     0
281
     0
  0
CLASS
  1
MLEADERSTYLE
  2
AcDbMLeaderStyle
  3
ACDB_MLEADERSTYLE_CLASS
 90
     4095
 91
        4
280
     0
281
     0
  0
CLASS
  1
SUN
  2
AcDbSun
  3
SCENEOE
 90
     1153
 91
        4
280
     0
281
     0
  0
CLASS
  1
DICTIONARYVAR
  2
AcDbDictionaryVar
  3
ObjectDBX Classes
 90
        0
 91
        4
280
     0
281
     0
  0
CLASS
  1
CELLSTYLEMAP
  2
AcDbCellStyleMap
  3
ObjectDBX Classes
 90
     1152
 91
        4
280
     0
281
     0
  0
ENDSEC
  0
SECTION
  2
TABLES
  0
TABLE
  2
VPORT
  5
8
330
0
100
AcDbSymbolTable
 70
     1
  0
VPORT
  5
29
330
8
100
AcDbSymbolTableRecord
100
AcDbViewportTableRecord
  2
*Active
 70
     0
 10
0.0
 20
0.0
 11
1.0
 21
1.0
 12
10.42990654205607
 22
4.5
 13
0.0
 23
0.0
 14
0.5
 24
0.5
 15
0.5
 25
0.5
 16
0.0
 26
0.0
 36
1.0
 17
0.0
 27
0.0
 37
0.0
 40
9.0
 41
1.972972972850329
 42
50.0
 43
0.0
 44
0.0
 50
0.0
 51
0.0
 71
     0
 72
   100
 73
     1
 74
     3
 75
     0
 76
     0
 77
     0
 78
     0
281
     0
 65
     1
110
0.0
120
0.0
130
0.0
111
1.0
121
0.0
131
0.0
112
0.0
122
1.0
132
0.0
 79
     0
146
0.0
348
2F
 60
     3
 61
     5
292
     1
282
     1
141
0.0
142
0.0
 63
   250
361
6D
  0
ENDTAB
  0
TABLE
  2
LTYPE
  5
5
330
0
100
AcDbSymbolTable
 70
     1
  0
LTYPE
  5
14
330
5
100
AcDbSymbolTableRecord
100
AcDbLinetypeTableRecord
  2
ByBlock
 70
     0
  3

 72
    65
 73
     0
 40
0.0
  0
LTYPE
  5
15
330
5
100
AcDbSymbolTableRecord
100
AcDbLinetypeTableRecord
  2
ByLayer
 70
     0
  3

 72
    65
 73
     0
 40
0.0
  0
LTYPE
  5
16
330
5
100
AcDbSymbolTableRecord
100
AcDbLinetypeTableRecord
  2
Continuous
 70
     0
  3
Solid line
 72
    65
 73
     0
 40
0.0
  0
ENDTAB
  0
TABLE
  2
LAYER
  5
2
330
0
100
AcDbSymbolTable
 70
     3
  0
LAYER
  5
10
330
2
100
AcDbSymbolTableRecord
100
AcDbLayerTableRecord
  2
0
 70
     0
 62
     7
  6
Continuous
370
    -3
390
F
347
46
  0
LAYER
  5
6F
330
2
100
AcDbSymbolTableRecord
100
AcDbLayerTableRecord
  2
Layer 1
 70
     0
 62
     7
  6
Continuous
370
    -3
390
F
347
46
  0
LAYER
  5
A9
330
2
100
AcDbSymbolTableRecord
100
AcDbLayerTableRecord
  2
Master Guides
 70
     0
 62
     7
  6
Continuous
290
     0
370
    -3
390
F
347
46
  0
ENDTAB
  0
TABLE
  2
STYLE
  5
3
330
0
100
AcDbSymbolTable
 70
     1
  0
STYLE
  5
11
330
3
100
AcDbSymbolTableRecord
100
AcDbTextStyleTableRecord
  2
Standard
 70
     0
 40
0.0
 41
1.0
 50
0.0
 71
     0
 42
0.2
  3
txt
  4

  0
ENDTAB
  0
TABLE
  2
VIEW
  5
6
330
0
100
AcDbSymbolTable
 70
     0
  0
ENDTAB
  0
TABLE
  2
UCS
  5
7
330
0
100
AcDbSymbolTable
 70
     0
  0
ENDTAB
  0
TABLE
  2
APPID
  5
9
330
0
100
AcDbSymbolTable
 70
     3
  0
APPID
  5
12
330
9
100
AcDbSymbolTableRecord
100
AcDbRegAppTableRecord
  2
ACAD
 70
     0
  0
APPID
  5
6E
330
9
100
AcDbSymbolTableRecord
100
AcDbRegAppTableRecord
  2
ODA
 70
     0
  0
APPID
  5
DF
330
9
100
AcDbSymbolTableRecord
100
AcDbRegAppTableRecord
  2
ACAD_MLEADERVER
 70
     0
  0
ENDTAB
  0
TABLE
  2
DIMSTYLE
  5
A
330
0
100
AcDbSymbolTable
 70
     1
100
AcDbDimStyleTable
  0
DIMSTYLE
105
27
330
A
100
AcDbSymbolTableRecord
100
AcDbDimStyleTableRecord
  2
Standard
 70
     0
178
     0
340
11
  0
ENDTAB
  0
TABLE
  2
BLOCK_RECORD
  5
1
330
0
100
AcDbSymbolTable
 70
     1
  0
BLOCK_RECORD
  5
1F
330
1
100
AcDbSymbolTableRecord
100
AcDbBlockTableRecord
  2
*Model_Space
340
22
 70
     0
280
     1
281
     0
  0
BLOCK_RECORD
  5
1B
330
1
100
AcDbSymbolTableRecord
100
AcDbBlockTableRecord
  2
*Paper_Space
340
1E
 70
     0
280
     1
281
     0
  0
BLOCK_RECORD
  5
23
330
1
100
AcDbSymbolTableRecord
100
AcDbBlockTableRecord
  2
*Paper_Space0
340
26
 70
     0
280
     1
281
     0
  0
ENDTAB
  0
ENDSEC
  0
SECTION
  2
BLOCKS
  0
BLOCK
  5
20
330
1F
100
AcDbEntity
  8
0
100
AcDbBlockBegin
  2
*Model_Space
 70
     0
 10
0.0
 20
0.0
 30
0.0
  3
*Model_Space
  1

  0
ENDBLK
  5
21
330
1F
100
AcDbEntity
  8
0
100
AcDbBlockEnd
  0
BLOCK
  5
1C
330
1B
100
AcDbEntity
 67
     1
  8
0
100
AcDbBlockBegin
  2
*Paper_Space
 70
     0
 10
0.0
 20
0.0
 30
0.0
  3
*Paper_Space
  1

  0
ENDBLK
  5
1D
330
1B
100
AcDbEntity
 67
     1
  8
0
100
AcDbBlockEnd
  0
BLOCK
  5
24
330
23
100
AcDbEntity
  8
0
100
AcDbBlockBegin
  2
*Paper_Space0
 70
     0
 10
0.0
 20
0.0
 30
0.0
  3
*Paper_Space0
  1

  0
ENDBLK
  5
25
330
23
100
AcDbEntity
  8
0
100
AcDbBlockEnd
  0
ENDSEC
  0
SECTION
  2
ENTITIES
  0
LWPOLYLINE
  5
70
330
1F
100
AcDbEntity
  8
Layer 1
370
    20
100
AcDbPolyline
 90
        5
 70
     1
 43
0.0
 10
-57.005
 20
35.7024
 10
82.995
 20
35.7024
 10
82.995
 20
99.7022
 10
-57.005
 20
99.7022
 10
-57.005
 20
35.7024
  0
ELLIPSE
  5
71
330
1F
100
AcDbEntity
  8
Layer 1
370
    20
100
AcDbEllipse
 10
-51.505
 20
94.2022
 30
0.0
 11
0.0
 21
1.75
 31
0.0
210
0.0
220
0.0
230
1.0
 40
1.0
 41
0.0
 42
6.283185307179586
  0
ELLIPSE
  5
72
330
1F
100
AcDbEntity
  8
Layer 1
370
    20
100
AcDbEllipse
 10
12.995
 20
94.2022
 30
0.0
 11
0.0
 21
1.75
 31
0.0
210
0.0
220
0.0
230
1.0
 40
1.0
 41
0.0
 42
6.283185307179586
  0
ELLIPSE
  5
73
330
1F
100
AcDbEntity
  8
Layer 1
370
    20
100
AcDbEllipse
 10
77.495
 20
94.2022
 30
0.0
 11
0.0
 21
1.75
 31
0.0
210
0.0
220
0.0
230
1.0
 40
1.0
 41
0.0
 42
6.283185307179586
  0
ELLIPSE
  5
74
330
1F
100
AcDbEntity
  8
Layer 1
370
    20
100
AcDbEllipse
 10
-51.505
 20
41.2022
 30
0.0
 11
0.0
 21
1.75
 31
0.0
210
0.0
220
0.0
230
1.0
 40
1.0
 41
0.0
 42
6.283185307179586
  0
ELLIPSE
  5
75
330
1F
100
AcDbEntity
  8
Layer 1
370
    20
100
AcDbEllipse
 10
12.995
 20
41.2022
 30
0.0
 11
0.0
 21
1.75
 31
0.0
210
0.0
220
0.0
230
1.0
 40
1.0
 41
0.0
 42
6.283185307179586
  0
ELLIPSE
  5
76
330
1F
100
AcDbEntity
  8
Layer 1
370
    20
100
AcDbEllipse
 10
77.495
 20
41.2022
 30
0.0
 11
0.0
 21
1.75
 31
0.0
210
0.0
220
0.0
230
1.0
 40
1.0
 41
0.0
 42
6.283185307179586
  0
SPLINE
  5
77
330
1F
100
AcDbEntity
  8
Layer 1
370
    20
100
AcDbSpline
210
0.0
220
0.0
230
1.0
 70
    11
 71
     3
 72
    36
 73
    32
 74
     0
 42
0.000000001
 43
0.0000000001
 40
0.0
 40
0.0
 40
0.0
 40
0.0
 40
0.1111111111111111
 40
0.1111111111111111
 40
0.1111111111111111
 40
0.1111111111111111
 40
0.2222222222222222
 40
0.2222222222222222
 40
0.2222222222222222
 40
0.2222222222222222
 40
0.3333333333333333
 40
0.3333333333333333
 40
0.3333333333333333
 40
0.3333333333333333
 40
0.4444444444444444
 40
0.4444444444444444
 40
0.4444444444444444
 40
0.4444444444444444
 40
0.5555555555555556
 40
0.5555555555555556
 40
0.5555555555555556
 40
0.5555555555555556
 40
0.6666666666666666
 40
0.6666666666666666
 40
0.6666666666666666
 40
0.6666666666666666
 40
0.7777777777777778
 40
0.7777777777777778
 40
0.7777777777777778
 40
0.7777777777777778
 40
1.0
 40
1.0
 40
1.0
 40
1.0
 10
-9.6778
 20
28.3369
 30
0.0
 10
-9.6778
 20
28.3369
 30
0.0
 10
5.1678
 20
28.3369
 30
0.0
 10
5.1678
 20
28.3369
 30
0.0
 10
5.1678
 20
28.3369
 30
0.0
 10
6.9977
 20
28.3369
 30
0.0
 10
8.495
 20
26.8397
 30
0.0
 10
8.495
 20
25.0097
 30
0.0
 10
8.495
 20
25.0097
 30
0.0
 10
8.495
 20
25.0097
 30
0.0
 10
8.495
 20
-4.8359
 30
0.0
 10
8.495
 20
-4.8359
 30
0.0
 10
8.495
 20
-4.8359
 30
0.0
 10
8.495
 20
-6.6659
 30
0.0
 10
6.9977
 20
-8.1631
 30
0.0
 10
5.1678
 20
-8.1631
 30
0.0
 10
5.1678
 20
-8.1631
 30
0.0
 10
5.1678
 20
-8.1631
 30
0.0
 10
-9.6778
 20
-8.1631
 30
0.0
 10
-9.6778
 20
-8.1631
 30
0.0
 10
-9.6778
 20
-8.1631
 30
0.0
 10
-11.5077
 20
-8.1631
 30
0.0
 10
-13.005
 20
-6.6659
 30
0.0
 10
-13.005
 20
-4.8359
 30
0.0
 10
-13.005
 20
-4.8359
 30
0.0
 10
-13.005
 20
-4.8359
 30
0.0
 10
-13.005
 20
25.0097
 30
0.0
 10
-13.005
 20
25.0097
 30
0.0
 10
-13.005
 20
25.0097
 30
0.0
 10
-13.005
 20
26.8397
 30
0.0
 10
-11.5077
 20
28.3369
 30
0.0
 10
-9.6778
 20
28.3369
 30
0.0
  0
SPLINE
  5
78
330
1F
100
AcDbEntity
  8
Layer 1
370
    20
100
AcDbSpline
210
0.0
220
0.0
230
1.0
 70
    11
 71
     3
 72
    36
 73
    32
 74
     0
 42
0.000000001
 43
0.0000000001
 40
0.0
 40
0.0
 40
0.0
 40
0.0
 40
0.1111111111111111
 40
0.1111111111111111
 40
0.1111111111111111
 40
0.1111111111111111
 40
0.2222222222222222
 40
0.2222222222222222
 40
0.2222222222222222
 40
0.2222222222222222
 40
0.3333333333333333
 40
0.3333333333333333
 40
0.3333333333333333
 40
0.3333333333333333
 40
0.4444444444444444
 40
0.4444444444444444
 40
0.4444444444444444
 40
0.4444444444444444
 40
0.5555555555555556
 40
0.5555555555555556
 40
0.5555555555555556
 40
0.5555555555555556
 40
0.6666666666666666
 40
0.6666666666666666
 40
0.6666666666666666
 40
0.6666666666666666
 40
0.7777777777777778
 40
0.7777777777777778
 40
0.7777777777777778
 40
0.7777777777777778
 40
1.0
 40
1.0
 40
1.0
 40
1.0
 10
51.3222
 20
28.3369
 30
0.0
 10
51.3222
 20
28.3369
 30
0.0
 10
66.1678
 20
28.3369
 30
0.0
 10
66.1678
 20
28.3369
 30
0.0
 10
66.1678
 20
28.3369
 30
0.0
 10
67.9977
 20
28.3369
 30
0.0
 10
69.495
 20
26.8397
 30
0.0
 10
69.495
 20
25.0097
 30
0.0
 10
69.495
 20
25.0097
 30
0.0
 10
69.495
 20
25.0097
 30
0.0
 10
69.495
 20
-4.8359
 30
0.0
 10
69.495
 20
-4.8359
 30
0.0
 10
69.495
 20
-4.8359
 30
0.0
 10
69.495
 20
-6.6659
 30
0.0
 10
67.9977
 20
-8.1631
 30
0.0
 10
66.1678
 20
-8.1631
 30
0.0
 10
66.1678
 20
-8.1631
 30
0.0
 10
66.1678
 20
-8.1631
 30
0.0
 10
51.3222
 20
-8.1631
 30
0.0
 10
51.3222
 20
-8.1631
 30
0.0
 10
51.3222
 20
-8.1631
 30
0.0
 10
49.4923
 20
-8.1631
 30
0.0
 10
47.995
 20
-6.6659
 30
0.0
 10
47.995
 20
-4.8359
 30
0.0
 10
47.995
 20
-4.8359
 30
0.0
 10
47.995
 20
-4.8359
 30
0.0
 10
47.995
 20
25.0097
 30
0.0
 10
47.995
 20
25.0097
 30
0.0
 10
47.995
 20
25.0097
 30
0.0
 10
47.995
 20
26.8397
 30
0.0
 10
49.4923
 20
28.3369
 30
0.0
 10
51.3222
 20
28.3369
 30
0.0
  0
SPLINE
  5
79
330
1F
100
AcDbEntity
  8
Layer 1
370
    20
100
AcDbSpline
210
0.0
220
0.0
230
1.0
 70
    11
 71
     3
 72
    36
 73
    32
 74
     0
 42
0.000000001
 43
0.0000000001
 40
0.0
 40
0.0
 40
0.0
 40
0.0
 40
0.1111111111111111
 40
0.1111111111111111
 40
0.1111111111111111
 40
0.1111111111111111
 40
0.2222222222222222
 40
0.2222222222222222
 40
0.2222222222222222
 40
0.2222222222222222
 40
0.3333333333333333
 40
0.3333333333333333
 40
0.3333333333333333
 40
0.3333333333333333
 40
0.4444444444444444
 40
0.4444444444444444
 40
0.4444444444444444
 40
0.4444444444444444
 40
0.5555555555555556
 40
0.5555555555555556
 40
0.5555555555555556
 40
0.5555555555555556
 40
0.6666666666666666
 40
0.6666666666666666
 40
0.6666666666666666
 40
0.6666666666666666
 40
0.7777777777777778
 40
0.7777777777777778
 40
0.7777777777777778
 40
0.7777777777777778
 40
1.0
 40
1.0
 40
1.0
 40
1.0
 10
-40.1778
 20
28.3369
 30
0.0
 10
-40.1778
 20
28.3369
 30
0.0
 10
-25.3322
 20
28.3369
 30
0.0
 10
-25.3322
 20
28.3369
 30
0.0
 10
-25.3322
 20
28.3369
 30
0.0
 10
-23.5023
 20
28.3369
 30
0.0
 10
-22.005
 20
26.8397
 30
0.0
 10
-22.005
 20
25.0097
 30
0.0
 10
-22.005
 20
25.0097
 30
0.0
 10
-22.005
 20
25.0097
 30
0.0
 10
-22.005
 20
-4.8359
 30
0.0
 10
-22.005
 20
-4.8359
 30
0.0
 10
-22.005
 20
-4.8359
 30
0.0
 10
-22.005
 20
-6.6659
 30
0.0
 10
-23.5023
 20
-8.1631
 30
0.0
 10
-25.3322
 20
-8.1631
 30
0.0
 10
-25.3322
 20
-8.1631
 30
0.0
 10
-25.3322
 20
-8.1631
 30
0.0
 10
-40.1778
 20
-8.1631
 30
0.0
 10
-40.1778
 20
-8.1631
 30
0.0
 10
-40.1778
 20
-8.1631
 30
0.0
 10
-42.0077
 20
-8.1631
 30
0.0
 10
-43.505
 20
-6.6659
 30
0.0
 10
-43.505
 20
-4.8359
 30
0.0
 10
-43.505
 20
-4.8359
 30
0.0
 10
-43.505
 20
-4.8359
 30
0.0
 10
-43.505
 20
25.0097
 30
0.0
 10
-43.505
 20
25.0097
 30
0.0
 10
-43.505
 20
25.0097
 30
0.0
 10
-43.505
 20
26.8397
 30
0.0
 10
-42.0077
 20
28.3369
 30
0.0
 10
-40.1778
 20
28.3369
 30
0.0
  0
SPLINE
  5
7A
330
1F
100
AcDbEntity
  8
Layer 1
370
    20
100
AcDbSpline
210
0.0
220
0.0
230
1.0
 70
    11
 71
     3
 72
    36
 73
    32
 74
     0
 42
0.000000001
 43
0.0000000001
 40
0.0
 40
0.0
 40
0.0
 40
0.0
 40
0.1111111111111111
 40
0.1111111111111111
 40
0.1111111111111111
 40
0.1111111111111111
 40
0.2222222222222222
 40
0.2222222222222222
 40
0.2222222222222222
 40
0.2222222222222222
 40
0.3333333333333333
 40
0.3333333333333333
 40
0.3333333333333333
 40
0.3333333333333333
 40
0.4444444444444444
 40
0.4444444444444444
 40
0.4444444444444444
 40
0.4444444444444444
 40
0.5555555555555556
 40
0.5555555555555556
 40
0.5555555555555556
 40
0.5555555555555556
 40
0.6666666666666666
 40
0.6666666666666666
 40
0.6666666666666666
 40
0.6666666666666666
 40
0.7777777777777778
 40
0.7777777777777778
 40
0.7777777777777778
 40
0.7777777777777778
 40
1.0
 40
1.0
 40
1.0
 40
1.0
 10
20.8222
 20
28.3369
 30
0.0
 10
20.8222
 20
28.3369
 30
0.0
 10
35.6678
 20
28.3369
 30
0.0
 10
35.6678
 20
28.3369
 30
0.0
 10
35.6678
 20
28.3369
 30
0.0
 10
37.4977
 20
28.3369
 30
0.0
 10
38.995
 20
26.8397
 30
0.0
 10
38.995
 20
25.0097
 30
0.0
 10
38.995
 20
25.0097
 30
0.0
 10
38.995
 20
25.0097
 30
0.0
 10
38.995
 20
-4.8359
 30
0.0
 10
38.995
 20
-4.8359
 30
0.0
 10
38.995
 20
-4.8359
 30
0.0
 10
38.995
 20
-6.6659
 30
0.0
 10
37.4977
 20
-8.1631
 30
0.0
 10
35.6678
 20
-8.1631
 30
0.0
 10
35.6678
 20
-8.1631
 30
0.0
 10
35.6678
 20
-8.1631
 30
0.0
 10
20.8222
 20
-8.1631
 30
0.0
 10
20.8222
 20
-8.1631
 30
0.0
 10
20.8222
 20
-8.1631
 30
0.0
 10
18.9923
 20
-8.1631
 30
0.0
 10
17.495
 20
-6.6659
 30
0.0
 10
17.495
 20
-4.8359
 30
0.0
 10
17.495
 20
-4.8359
 30
0.0
 10
17.495
 20
-4.8359
 30
0.0
 10
17.495
 20
25.0097
 30
0.0
 10
17.495
 20
25.0097
 30
0.0
 10
17.495
 20
25.0097
 30
0.0
 10
17.495
 20
26.8397
 30
0.0
 10
18.9923
 20
28.3369
 30
0.0
 10
20.8222
 20
28.3369
 30
0.0
  0
SPLINE
  5
7B
330
1F
100
AcDbEntity
  8
Layer 1
370
    20
100
AcDbSpline
210
0.0
220
0.0
230
1.0
 70
    11
 71
     3
 72
    36
 73
    32
 74
     0
 42
0.000000001
 43
0.0000000001
 40
0.0
 40
0.0
 40
0.0
 40
0.0
 40
0.1111111111111111
 40
0.1111111111111111
 40
0.1111111111111111
 40
0.1111111111111111
 40
0.2222222222222222
 40
0.2222222222222222
 40
0.2222222222222222
 40
0.2222222222222222
 40
0.3333333333333333
 40
0.3333333333333333
 40
0.3333333333333333
 40
0.3333333333333333
 40
0.4444444444444444
 40
0.4444444444444444
 40
0.4444444444444444
 40
0.4444444444444444
 40
0.5555555555555556
 40
0.5555555555555556
 40
0.5555555555555556
 40
0.5555555555555556
 40
0.6666666666666666
 40
0.6666666666666666
 40
0.6666666666666666
 40
0.6666666666666666
 40
0.7777777777777778
 40
0.7777777777777778
 40
0.7777777777777778
 40
0.7777777777777778
 40
1.0
 40
1.0
 40
1.0
 40
1.0
 10
-39.7628
 20
84.7022
 30
0.0
 10
-39.7628
 20
84.7022
 30
0.0
 10
-25.7473
 20
84.7022
 30
0.0
 10
-25.7473
 20
84.7022
 30
0.0
 10
-25.7473
 20
84.7022
 30
0.0
 10
-24.3765
 20
84.7022
 30
0.0
 10
-23.2551
 20
83.5808
 30
0.0
 10
-23.2551
 20
82.21
 30
0.0
 10
-23.2551
 20
82.21
 30
0.0
 10
-23.2551
 20
82.21
 30
0.0
 10
-23.2551
 20
53.1944
 30
0.0
 10
-23.2551
 20
53.1944
 30
0.0
 10
-23.2551
 20
53.1944
 30
0.0
 10
-23.2551
 20
51.8236
 30
0.0
 10
-24.3765
 20
50.7022
 30
0.0
 10
-25.7473
 20
50.7022
 30
0.0
 10
-25.7473
 20
50.7022
 30
0.0
 10
-25.7473
 20
50.7022
 30
0.0
 10
-39.7628
 20
50.7022
 30
0.0
 10
-39.7628
 20
50.7022
 30
0.0
 10
-39.7628
 20
50.7022
 30
0.0
 10
-41.1336
 20
50.7022
 30
0.0
 10
-42.255
 20
51.8236
 30
0.0
 10
-42.255
 20
53.1944
 30
0.0
 10
-42.255
 20
53.1944
 30
0.0
 10
-42.255
 20
53.1944
 30
0.0
 10
-42.255
 20
82.21
 30
0.0
 10
-42.255
 20
82.21
 30
0.0
 10
-42.255
 20
82.21
 30
0.0
 10
-42.255
 20
83.5808
 30
0.0
 10
-41.1336
 20
84.7022
 30
0.0
 10
-39.7628
 20
84.7022
 30
0.0
  0
SPLINE
  5
7C
330
1F
100
AcDbEntity
  8
Layer 1
370
    20
100
AcDbSpline
210
0.0
220
0.0
230
1.0
 70
    11
 71
     3
 72
    36
 73
    32
 74
     0
 42
0.000000001
 43
0.0000000001
 40
0.0
 40
0.0
 40
0.0
 40
0.0
 40
0.1111111111111111
 40
0.1111111111111111
 40
0.1111111111111111
 40
0.1111111111111111
 40
0.2222222222222222
 40
0.2222222222222222
 40
0.2222222222222222
 40
0.2222222222222222
 40
0.3333333333333333
 40
0.3333333333333333
 40
0.3333333333333333
 40
0.3333333333333333
 40
0.4444444444444444
 40
0.4444444444444444
 40
0.4444444444444444
 40
0.4444444444444444
 40
0.5555555555555556
 40
0.5555555555555556
 40
0.5555555555555556
 40
0.5555555555555556
 40
0.6666666666666666
 40
0.6666666666666666
 40
0.6666666666666666
 40
0.6666666666666666
 40
0.7777777777777778
 40
0.7777777777777778
 40
0.7777777777777778
 40
0.7777777777777778
 40
1.0
 40
1.0
 40
1.0
 40
1.0
 10
-9.2627
 20
84.7022
 30
0.0
 10
-9.2627
 20
84.7022
 30
0.0
 10
4.7526
 20
84.7022
 30
0.0
 10
4.7526
 20
84.7022
 30
0.0
 10
4.7526
 20
84.7022
 30
0.0
 10
6.1234
 20
84.7022
 30
0.0
 10
7.2449
 20
83.5807
 30
0.0
 10
7.2449
 20
82.2099
 30
0.0
 10
7.2449
 20
82.2099
 30
0.0
 10
7.2449
 20
82.2099
 30
0.0
 10
7.2449
 20
53.1945
 30
0.0
 10
7.2449
 20
53.1945
 30
0.0
 10
7.2449
 20
53.1945
 30
0.0
 10
7.2449
 20
51.8237
 30
0.0
 10
6.1234
 20
50.7022
 30
0.0
 10
4.7526
 20
50.7022
 30
0.0
 10
4.7526
 20
50.7022
 30
0.0
 10
4.7526
 20
50.7022
 30
0.0
 10
-9.2627
 20
50.7022
 30
0.0
 10
-9.2627
 20
50.7022
 30
0.0
 10
-9.2627
 20
50.7022
 30
0.0
 10
-10.6335
 20
50.7022
 30
0.0
 10
-11.755
 20
51.8237
 30
0.0
 10
-11.755
 20
53.1945
 30
0.0
 10
-11.755
 20
53.1945
 30
0.0
 10
-11.755
 20
53.1945
 30
0.0
 10
-11.755
 20
82.2099
 30
0.0
 10
-11.755
 20
82.2099
 30
0.0
 10
-11.755
 20
82.2099
 30
0.0
 10
-11.755
 20
83.5807
 30
0.0
 10
-10.6335
 20
84.7022
 30
0.0
 10
-9.2627
 20
84.7022
 30
0.0
  0
SPLINE
  5
7D
330
1F
100
AcDbEntity
  8
Layer 1
370
    20
100
AcDbSpline
210
0.0
220
0.0
230
1.0
 70
    11
 71
     3
 72
    36
 73
    32
 74
     0
 42
0.000000001
 43
0.0000000001
 40
0.0
 40
0.0
 40
0.0
 40
0.0
 40
0.1111111111111111
 40
0.1111111111111111
 40
0.1111111111111111
 40
0.1111111111111111
 40
0.2222222222222222
 40
0.2222222222222222
 40
0.2222222222222222
 40
0.2222222222222222
 40
0.3333333333333333
 40
0.3333333333333333
 40
0.3333333333333333
 40
0.3333333333333333
 40
0.4444444444444444
 40
0.4444444444444444
 40
0.4444444444444444
 40
0.4444444444444444
 40
0.5555555555555556
 40
0.5555555555555556
 40
0.5555555555555556
 40
0.5555555555555556
 40
0.6666666666666666
 40
0.6666666666666666
 40
0.6666666666666666
 40
0.6666666666666666
 40
0.7777777777777778
 40
0.7777777777777778
 40
0.7777777777777778
 40
0.7777777777777778
 40
1.0
 40
1.0
 40
1.0
 40
1.0
 10
21.2374
 20
84.7022
 30
0.0
 10
21.2374
 20
84.7022
 30
0.0
 10
35.2527
 20
84.7022
 30
0.0
 10
35.2527
 20
84.7022
 30
0.0
 10
35.2527
 20
84.7022
 30
0.0
 10
36.6235
 20
84.7022
 30
0.0
 10
37.745
 20
83.5807
 30
0.0
 10
37.745
 20
82.2099
 30
0.0
 10
37.745
 20
82.2099
 30
0.0
 10
37.745
 20
82.2099
 30
0.0
 10
37.745
 20
53.1945
 30
0.0
 10
37.745
 20
53.1945
 30
0.0
 10
37.745
 20
53.1945
 30
0.0
 10
37.745
 20
51.8237
 30
0.0
 10
36.6235
 20
50.7022
 30
0.0
 10
35.2527
 20
50.7022
 30
0.0
 10
35.2527
 20
50.7022
 30
0.0
 10
35.2527
 20
50.7022
 30
0.0
 10
21.2374
 20
50.7022
 30
0.0
 10
21.2374
 20
50.7022
 30
0.0
 10
21.2374
 20
50.7022
 30
0.0
 10
19.8666
 20
50.7022
 30
0.0
 10
18.7451
 20
51.8237
 30
0.0
 10
18.7451
 20
53.1945
 30
0.0
 10
18.7451
 20
53.1945
 30
0.0
 10
18.7451
 20
53.1945
 30
0.0
 10
18.7451
 20
82.2099
 30
0.0
 10
18.7451
 20
82.2099
 30
0.0
 10
18.7451
 20
82.2099
 30
0.0
 10
18.7451
 20
83.5807
 30
0.0
 10
19.8666
 20
84.7022
 30
0.0
 10
21.2374
 20
84.7022
 30
0.0
  0
SPLINE
  5
7E
330
1F
100
AcDbEntity
  8
Layer 1
370
    20
100
AcDbSpline
210
0.0
220
0.0
230
1.0
 70
    11
 71
     3
 72
    36
 73
    32
 74
     0
 42
0.000000001
 43
0.0000000001
 40
0.0
 40
0.0
 40
0.0
 40
0.0
 40
0.1111111111111111
 40
0.1111111111111111
 40
0.1111111111111111
 40
0.1111111111111111
 40
0.2222222222222222
 40
0.2222222222222222
 40
0.2222222222222222
 40
0.2222222222222222
 40
0.3333333333333333
 40
0.3333333333333333
 40
0.3333333333333333
 40
0.3333333333333333
 40
0.4444444444444444
 40
0.4444444444444444
 40
0.4444444444444444
 40
0.4444444444444444
 40
0.5555555555555556
 40
0.5555555555555556
 40
0.5555555555555556
 40
0.5555555555555556
 40
0.6666666666666666
 40
0.6666666666666666
 40
0.6666666666666666
 40
0.6666666666666666
 40
0.7777777777777778
 40
0.7777777777777778
 40
0.7777777777777778
 40
0.7777777777777778
 40
1.0
 40
1.0
 40
1.0
 40
1.0
 10
51.7373
 20
84.7022
 30
0.0
 10
51.7373
 20
84.7022
 30
0.0
 10
65.7528
 20
84.7022
 30
0.0
 10
65.7528
 20
84.7022
 30
0.0
 10
65.7528
 20
84.7022
 30
0.0
 10
67.1236
 20
84.7022
 30
0.0
 10
68.245
 20
83.5808
 30
0.0
 10
68.245
 20
82.21
 30
0.0
 10
68.245
 20
82.21
 30
0.0
 10
68.245
 20
82.21
 30
0.0
 10
68.245
 20
53.1944
 30
0.0
 10
68.245
 20
53.1944
 30
0.0
 10
68.245
 20
53.1944
 30
0.0
 10
68.245
 20
51.8236
 30
0.0
 10
67.1236
 20
50.7022
 30
0.0
 10
65.7528
 20
50.7022
 30
0.0
 10
65.7528
 20
50.7022
 30
0.0
 10
65.7528
 20
50.7022
 30
0.0
 10
51.7373
 20
50.7022
 30
0.0
 10
51.7373
 20
50.7022
 30
0.0
 10
51.7373
 20
50.7022
 30
0.0
 10
50.3665
 20
50.7022
 30
0.0
 10
49.2451
 20
51.8236
 30
0.0
 10
49.2451
 20
53.1944
 30
0.0
 10
49.2451
 20
53.1944
 30
0.0
 10
49.2451
 20
53.1944
 30
0.0
 10
49.2451
 20
82.21
 30
0.0
 10
49.2451
 20
82.21
 30
0.0
 10
49.2451
 20
82.21
 30
0.0
 10
49.2451
 20
83.5808
 30
0.0
 10
50.3665
 20
84.7022
 30
0.0
 10
51.7373
 20
84.7022
 30
0.0
  0
SPLINE
  5
7F
330
1F
100
AcDbEntity
  8
Layer 1
 62
     1
100
AcDbSpline
210
0.0
220
0.0
230
1.0
 70
    11
 71
     3
 72
    48
 73
    44
 74
     0
 42
0.000000001
 43
0.0000000001
 40
0.0
 40
0.0
 40
0.0
 40
0.0
 40
0.0833333333333333
 40
0.0833333333333333
 40
0.0833333333333333
 40
0.0833333333333333
 40
0.1666666666666667
 40
0.1666666666666667
 40
0.1666666666666667
 40
0.1666666666666667
 40
0.25
 40
0.25
 40
0.25
 40
0.25
 40
0.3333333333333333
 40
0.3333333333333333
 40
0.3333333333333333
 40
0.3333333333333333
 40
0.4166666666666667
 40
0.4166666666666667
 40
0.4166666666666667
 40
0.4166666666666667
 40
0.5
 40
0.5
 40
0.5
 40
0.5
 40
0.5833333333333334
 40
0.5833333333333334
 40
0.5833333333333334
 40
0.5833333333333334
 40
0.6666666666666666
 40
0.6666666666666666
 40
0.6666666666666666
 40
0.6666666666666666
 40
0.75
 40
0.75
 40
0.75
 40
0.75
 40
0.8333333333333334
 40
0.8333333333333334
 40
0.8333333333333334
 40
0.8333333333333334
 40
1.0
 40
1.0
 40
1.0
 40
1.0
 10
-39.1792
 20
11.3606
 30
0.0
 10
-39.1792
 20
11.3606
 30
0.0
 10
-39.1792
 20
15.4415
 30
0.0
 10
-39.1792
 20
15.4415
 30
0.0
 10
-39.1792
 20
15.4415
 30
0.0
 10
-39.1792
 20
15.4415
 30
0.0
 10
-38.088
 20
15.4415
 30
0.0
 10
-38.088
 20
15.4415
 30
0.0
 10
-38.088
 20
15.4415
 30
0.0
 10
-37.7004
 20
15.4415
 30
0.0
 10
-37.4219
 20
15.4029
 30
0.0
 10
-37.2535
 20
15.3258
 30
0.0
 10
-37.2535
 20
15.3258
 30
0.0
 10
-37.0842
 20
15.2487
 30
0.0
 10
-36.9553
 20
15.1301
 30
0.0
 10
-36.865
 20
14.9711
 30
0.0
 10
-36.865
 20
14.9711
 30
0.0
 10
-36.7747
 20
14.8112
 30
0.0
 10
-36.7295
 20
14.6118
 30
0.0
 10
-36.7295
 20
14.3738
 30
0.0
 10
-36.7295
 20
14.3738
 30
0.0
 10
-36.7295
 20
14.0944
 30
0.0
 10
-36.7888
 20
13.8507
 30
0.0
 10
-36.9073
 20
13.6409
 30
0.0
 10
-36.9073
 20
13.6409
 30
0.0
 10
-37.0268
 20
13.4321
 30
0.0
 10
-37.2178
 20
13.2703
 30
0.0
 10
-37.4803
 20
13.1565
 30
0.0
 10
-37.4803
 20
13.1565
 30
0.0
 10
-37.7427
 20
13.0426
 30
0.0
 10
-38.0325
 20
12.9862
 30
0.0
 10
-38.3485
 20
12.9862
 30
0.0
 10
-38.3485
 20
12.9862
 30
0.0
 10
-38.3485
 20
12.9862
 30
0.0
 10
-38.5978
 20
12.9862
 30
0.0
 10
-38.5978
 20
12.9862
 30
0.0
 10
-38.5978
 20
12.9862
 30
0.0
 10
-38.5978
 20
12.9862
 30
0.0
 10
-38.5978
 20
11.3606
 30
0.0
 10
-38.5978
 20
11.3606
 30
0.0
 10
-38.5978
 20
11.3606
 30
0.0
 10
-38.5978
 20
11.3606
 30
0.0
 10
-39.1792
 20
11.3606
 30
0.0
 10
-39.1792
 20
11.3606
 30
0.0
  0
SPLINE
  5
80
330
1F
100
AcDbEntity
  8
Layer 1
 62
     1
100
AcDbSpline
210
0.0
220
0.0
230
1.0
 70
    11
 71
     3
 72
    36
 73
    32
 74
     0
 42
0.000000001
 43
0.0000000001
 40
0.0
 40
0.0
 40
0.0
 40
0.0
 40
0.1111111111111111
 40
0.1111111111111111
 40
0.1111111111111111
 40
0.1111111111111111
 40
0.2222222222222222
 40
0.2222222222222222
 40
0.2222222222222222
 40
0.2222222222222222
 40
0.3333333333333333
 40
0.3333333333333333
 40
0.3333333333333333
 40
0.3333333333333333
 40
0.4444444444444444
 40
0.4444444444444444
 40
0.4444444444444444
 40
0.4444444444444444
 40
0.5555555555555556
 40
0.5555555555555556
 40
0.5555555555555556
 40
0.5555555555555556
 40
0.6666666666666666
 40
0.6666666666666666
 40
0.6666666666666666
 40
0.6666666666666666
 40
0.7777777777777778
 40
0.7777777777777778
 40
0.7777777777777778
 40
0.7777777777777778
 40
1.0
 40
1.0
 40
1.0
 40
1.0
 10
-38.5978
 20
13.4208
 30
0.0
 10
-38.5978
 20
13.4208
 30
0.0
 10
-38.3739
 20
13.4208
 30
0.0
 10
-38.3739
 20
13.4208
 30
0.0
 10
-38.3739
 20
13.4208
 30
0.0
 10
-38.0071
 20
13.4208
 30
0.0
 10
-37.7437
 20
13.5083
 30
0.0
 10
-37.5847
 20
13.6823
 30
0.0
 10
-37.5847
 20
13.6823
 30
0.0
 10
-37.4247
 20
13.8564
 30
0.0
 10
-37.3448
 20
14.0727
 30
0.0
 10
-37.3448
 20
14.3296
 30
0.0
 10
-37.3448
 20
14.3296
 30
0.0
 10
-37.3448
 20
14.4688
 30
0.0
 10
-37.3702
 20
14.5873
 30
0.0
 10
-37.421
 20
14.6833
 30
0.0
 10
-37.421
 20
14.6833
 30
0.0
 10
-37.4718
 20
14.7802
 30
0.0
 10
-37.5536
 20
14.8573
 30
0.0
 10
-37.6656
 20
14.9175
 30
0.0
 10
-37.6656
 20
14.9175
 30
0.0
 10
-37.7785
 20
14.9768
 30
0.0
 10
-37.976
 20
15.0069
 30
0.0
 10
-38.2582
 20
15.0069
 30
0.0
 10
-38.2582
 20
15.0069
 30
0.0
 10
-38.2582
 20
15.0069
 30
0.0
 10
-38.5978
 20
15.0069
 30
0.0
 10
-38.5978
 20
15.0069
 30
0.0
 10
-38.5978
 20
15.0069
 30
0.0
 10
-38.5978
 20
15.0069
 30
0.0
 10
-38.5978
 20
13.4208
 30
0.0
 10
-38.5978
 20
13.4208
 30
0.0
  0
SPLINE
  5
81
330
1F
100
AcDbEntity
  8
Layer 1
 62
     1
100
AcDbSpline
210
0.0
220
0.0
230
1.0
 70
    11
 71
     3
 72
    52
 73
    48
 74
     0
 42
0.000000001
 43
0.0000000001
 40
0.0
 40
0.0
 40
0.0
 40
0.0
 40
0.0769230769230769
 40
0.0769230769230769
 40
0.0769230769230769
 40
0.0769230769230769
 40
0.1538461538461539
 40
0.1538461538461539
 40
0.1538461538461539
 40
0.1538461538461539
 40
0.2307692307692308
 40
0.2307692307692308
 40
0.2307692307692308
 40
0.2307692307692308
 40
0.3076923076923077
 40
0.3076923076923077
 40
0.3076923076923077
 40
0.3076923076923077
 40
0.3846153846153846
 40
0.3846153846153846
 40
0.3846153846153846
 40
0.3846153846153846
 40
0.4615384615384616
 40
0.4615384615384616
 40
0.4615384615384616
 40
0.4615384615384616
 40
0.5384615384615384
 40
0.5384615384615384
 40
0.5384615384615384
 40
0.5384615384615384
 40
0.6153846153846154
 40
0.6153846153846154
 40
0.6153846153846154
 40
0.6153846153846154
 40
0.6923076923076923
 40
0.6923076923076923
 40
0.6923076923076923
 40
0.6923076923076923
 40
0.7692307692307693
 40
0.7692307692307693
 40
0.7692307692307693
 40
0.7692307692307693
 40
0.8461538461538461
 40
0.8461538461538461
 40
0.8461538461538461
 40
0.8461538461538461
 40
1.0
 40
1.0
 40
1.0
 40
1.0
 10
-36.0597
 20
11.3606
 30
0.0
 10
-36.0597
 20
11.3606
 30
0.0
 10
-36.0597
 20
15.4415
 30
0.0
 10
-36.0597
 20
15.4415
 30
0.0
 10
-36.0597
 20
15.4415
 30
0.0
 10
-36.0597
 20
15.4415
 30
0.0
 10
-33.7681
 20
15.4415
 30
0.0
 10
-33.7681
 20
15.4415
 30
0.0
 10
-33.7681
 20
15.4415
 30
0.0
 10
-33.7681
 20
15.4415
 30
0.0
 10
-33.7681
 20
15.0069
 30
0.0
 10
-33.7681
 20
15.0069
 30
0.0
 10
-33.7681
 20
15.0069
 30
0.0
 10
-33.7681
 20
15.0069
 30
0.0
 10
-35.4783
 20
15.0069
 30
0.0
 10
-35.4783
 20
15.0069
 30
0.0
 10
-35.4783
 20
15.0069
 30
0.0
 10
-35.4783
 20
15.0069
 30
0.0
 10
-35.4783
 20
13.7087
 30
0.0
 10
-35.4783
 20
13.7087
 30
0.0
 10
-35.4783
 20
13.7087
 30
0.0
 10
-35.4783
 20
13.7087
 30
0.0
 10
-34.0447
 20
13.7087
 30
0.0
 10
-34.0447
 20
13.7087
 30
0.0
 10
-34.0447
 20
13.7087
 30
0.0
 10
-34.0447
 20
13.7087
 30
0.0
 10
-34.0447
 20
13.2741
 30
0.0
 10
-34.0447
 20
13.2741
 30
0.0
 10
-34.0447
 20
13.2741
 30
0.0
 10
-34.0447
 20
13.2741
 30
0.0
 10
-35.4783
 20
13.2741
 30
0.0
 10
-35.4783
 20
13.2741
 30
0.0
 10
-35.4783
 20
13.2741
 30
0.0
 10
-35.4783
 20
13.2741
 30
0.0
 10
-35.4783
 20
11.7952
 30
0.0
 10
-35.4783
 20
11.7952
 30
0.0
 10
-35.4783
 20
11.7952
 30
0.0
 10
-35.4783
 20
11.7952
 30
0.0
 10
-33.6496
 20
11.7952
 30
0.0
 10
-33.6496
 20
11.7952
 30
0.0
 10
-33.6496
 20
11.7952
 30
0.0
 10
-33.6496
 20
11.7952
 30
0.0
 10
-33.6496
 20
11.3606
 30
0.0
 10
-33.6496
 20
11.3606
 30
0.0
 10
-33.6496
 20
11.3606
 30
0.0
 10
-33.6496
 20
11.3606
 30
0.0
 10
-36.0597
 20
11.3606
 30
0.0
 10
-36.0597
 20
11.3606
 30
0.0
  0
SPLINE
  5
82
330
1F
100
AcDbEntity
  8
Layer 1
 62
     1
100
AcDbSpline
210
0.0
220
0.0
230
1.0
 70
    11
 71
     3
 72
    56
 73
    52
 74
     0
 42
0.000000001
 43
0.0000000001
 40
0.0
 40
0.0
 40
0.0
 40
0.0
 40
0.0714285714285714
 40
0.0714285714285714
 40
0.0714285714285714
 40
0.0714285714285714
 40
0.1428571428571428
 40
0.1428571428571428
 40
0.1428571428571428
 40
0.1428571428571428
 40
0.2142857142857143
 40
0.2142857142857143
 40
0.2142857142857143
 40
0.2142857142857143
 40
0.2857142857142857
 40
0.2857142857142857
 40
0.2857142857142857
 40
0.2857142857142857
 40
0.3571428571428572
 40
0.3571428571428572
 40
0.3571428571428572
 40
0.3571428571428572
 40
0.4285714285714285
 40
0.4285714285714285
 40
0.4285714285714285
 40
0.4285714285714285
 40
0.5
 40
0.5
 40
0.5
 40
0.5
 40
0.5714285714285714
 40
0.5714285714285714
 40
0.5714285714285714
 40
0.5714285714285714
 40
0.6428571428571429
 40
0.6428571428571429
 40
0.6428571428571429
 40
0.6428571428571429
 40
0.7142857142857143
 40
0.7142857142857143
 40
0.7142857142857143
 40
0.7142857142857143
 40
0.7857142857142857
 40
0.7857142857142857
 40
0.7857142857142857
 40
0.7857142857142857
 40
0.8571428571428571
 40
0.8571428571428571
 40
0.8571428571428571
 40
0.8571428571428571
 40
1.0
 40
1.0
 40
1.0
 40
1.0
 10
-33.0004
 20
11.3606
 30
0.0
 10
-33.0004
 20
11.3606
 30
0.0
 10
-33.0004
 20
15.4415
 30
0.0
 10
-33.0004
 20
15.4415
 30
0.0
 10
-33.0004
 20
15.4415
 30
0.0
 10
-33.0004
 20
15.4415
 30
0.0
 10
-31.7662
 20
15.4415
 30
0.0
 10
-31.7662
 20
15.4415
 30
0.0
 10
-31.7662
 20
15.4415
 30
0.0
 10
-31.309
 20
15.4415
 30
0.0
 10
-30.9929
 20
15.339
 30
0.0
 10
-30.8179
 20
15.1339
 30
0.0
 10
-30.8179
 20
15.1339
 30
0.0
 10
-30.6439
 20
14.9288
 30
0.0
 10
-30.5564
 20
14.6936
 30
0.0
 10
-30.5564
 20
14.4283
 30
0.0
 10
-30.5564
 20
14.4283
 30
0.0
 10
-30.5564
 20
14.2731
 30
0.0
 10
-30.5874
 20
14.1207
 30
0.0
 10
-30.6486
 20
13.9693
 30
0.0
 10
-30.6486
 20
13.9693
 30
0.0
 10
-30.7097
 20
13.8187
 30
0.0
 10
-30.7963
 20
13.6842
 30
0.0
 10
-30.9101
 20
13.5666
 30
0.0
 10
-30.9101
 20
13.5666
 30
0.0
 10
-31.023
 20
13.449
 30
0.0
 10
-31.1773
 20
13.3493
 30
0.0
 10
-31.3729
 20
13.2684
 30
0.0
 10
-31.3729
 20
13.2684
 30
0.0
 10
-31.3729
 20
13.2684
 30
0.0
 10
-30.0202
 20
11.3606
 30
0.0
 10
-30.0202
 20
11.3606
 30
0.0
 10
-30.0202
 20
11.3606
 30
0.0
 10
-30.0202
 20
11.3606
 30
0.0
 10
-30.7285
 20
11.3606
 30
0.0
 10
-30.7285
 20
11.3606
 30
0.0
 10
-30.7285
 20
11.3606
 30
0.0
 10
-30.7285
 20
11.3606
 30
0.0
 10
-31.8809
 20
13.0821
 30
0.0
 10
-31.8809
 20
13.0821
 30
0.0
 10
-31.8809
 20
13.0821
 30
0.0
 10
-31.8809
 20
13.0821
 30
0.0
 10
-32.419
 20
13.0821
 30
0.0
 10
-32.419
 20
13.0821
 30
0.0
 10
-32.419
 20
13.0821
 30
0.0
 10
-32.419
 20
13.0821
 30
0.0
 10
-32.419
 20
11.3606
 30
0.0
 10
-32.419
 20
11.3606
 30
0.0
 10
-32.419
 20
11.3606
 30
0.0
 10
-32.419
 20
11.3606
 30
0.0
 10
-33.0004
 20
11.3606
 30
0.0
 10
-33.0004
 20
11.3606
 30
0.0
  0
SPLINE
  5
83
330
1F
100
AcDbEntity
  8
Layer 1
 62
     1
100
AcDbSpline
210
0.0
220
0.0
230
1.0
 70
    11
 71
     3
 72
    36
 73
    32
 74
     0
 42
0.000000001
 43
0.0000000001
 40
0.0
 40
0.0
 40
0.0
 40
0.0
 40
0.1111111111111111
 40
0.1111111111111111
 40
0.1111111111111111
 40
0.1111111111111111
 40
0.2222222222222222
 40
0.2222222222222222
 40
0.2222222222222222
 40
0.2222222222222222
 40
0.3333333333333333
 40
0.3333333333333333
 40
0.3333333333333333
 40
0.3333333333333333
 40
0.4444444444444444
 40
0.4444444444444444
 40
0.4444444444444444
 40
0.4444444444444444
 40
0.5555555555555556
 40
0.5555555555555556
 40
0.5555555555555556
 40
0.5555555555555556
 40
0.6666666666666666
 40
0.6666666666666666
 40
0.6666666666666666
 40
0.6666666666666666
 40
0.7777777777777778
 40
0.7777777777777778
 40
0.7777777777777778
 40
0.7777777777777778
 40
1.0
 40
1.0
 40
1.0
 40
1.0
 10
-32.419
 20
13.5168
 30
0.0
 10
-32.419
 20
13.5168
 30
0.0
 10
-32.2328
 20
13.5168
 30
0.0
 10
-32.2328
 20
13.5168
 30
0.0
 10
-32.2328
 20
13.5168
 30
0.0
 10
-31.8057
 20
13.5168
 30
0.0
 10
-31.5188
 20
13.6061
 30
0.0
 10
-31.3711
 20
13.7849
 30
0.0
 10
-31.3711
 20
13.7849
 30
0.0
 10
-31.2234
 20
13.9627
 30
0.0
 10
-31.1491
 20
14.1593
 30
0.0
 10
-31.1491
 20
14.3719
 30
0.0
 10
-31.1491
 20
14.3719
 30
0.0
 10
-31.1491
 20
14.4989
 30
0.0
 10
-31.1773
 20
14.6099
 30
0.0
 10
-31.2328
 20
14.7049
 30
0.0
 10
-31.2328
 20
14.7049
 30
0.0
 10
-31.2883
 20
14.799
 30
0.0
 10
-31.3748
 20
14.8733
 30
0.0
 10
-31.4924
 20
14.9269
 30
0.0
 10
-31.4924
 20
14.9269
 30
0.0
 10
-31.61
 20
14.9805
 30
0.0
 10
-31.7991
 20
15.0069
 30
0.0
 10
-32.0578
 20
15.0069
 30
0.0
 10
-32.0578
 20
15.0069
 30
0.0
 10
-32.0578
 20
15.0069
 30
0.0
 10
-32.419
 20
15.0069
 30
0.0
 10
-32.419
 20
15.0069
 30
0.0
 10
-32.419
 20
15.0069
 30
0.0
 10
-32.419
 20
15.0069
 30
0.0
 10
-32.419
 20
13.5168
 30
0.0
 10
-32.419
 20
13.5168
 30
0.0
  0
SPLINE
  5
84
330
1F
100
AcDbEntity
  8
Layer 1
 62
     1
100
AcDbSpline
210
0.0
220
0.0
230
1.0
 70
    11
 71
     3
 72
    80
 73
    76
 74
     0
 42
0.000000001
 43
0.0000000001
 40
0.0
 40
0.0
 40
0.0
 40
0.0
 40
0.05
 40
0.05
 40
0.05
 40
0.05
 40
0.1
 40
0.1
 40
0.1
 40
0.1
 40
0.15
 40
0.15
 40
0.15
 40
0.15
 40
0.2
 40
0.2
 40
0.2
 40
0.2
 40
0.25
 40
0.25
 40
0.25
 40
0.25
 40
0.3
 40
0.3
 40
0.3
 40
0.3
 40
0.35
 40
0.35
 40
0.35
 40
0.35
 40
0.4
 40
0.4
 40
0.4
 40
0.4
 40
0.45
 40
0.45
 40
0.45
 40
0.45
 40
0.5
 40
0.5
 40
0.5
 40
0.5
 40
0.55
 40
0.55
 40
0.55
 40
0.55
 40
0.6
 40
0.6
 40
0.6
 40
0.6
 40
0.65
 40
0.65
 40
0.65
 40
0.65
 40
0.7
 40
0.7
 40
0.7
 40
0.7
 40
0.75
 40
0.75
 40
0.75
 40
0.75
 40
0.8
 40
0.8
 40
0.8
 40
0.8
 40
0.85
 40
0.85
 40
0.85
 40
0.85
 40
0.9
 40
0.9
 40
0.9
 40
0.9
 40
1.0
 40
1.0
 40
1.0
 40
1.0
 10
-26.3608
 20
11.5694
 30
0.0
 10
-26.5282
 20
11.4838
 30
0.0
 10
-26.6778
 20
11.4199
 30
0.0
 10
-26.8086
 20
11.3785
 30
0.0
 10
-26.8086
 20
11.3785
 30
0.0
 10
-26.9403
 20
11.3371
 30
0.0
 10
-27.0767
 20
11.307
 30
0.0
 10
-27.2187
 20
11.2882
 30
0.0
 10
-27.2187
 20
11.2882
 30
0.0
 10
-27.3598
 20
11.2684
 30
0.0
 10
-27.5141
 20
11.259
 30
0.0
 10
-27.6797
 20
11.259
 30
0.0
 10
-27.6797
 20
11.259
 30
0.0
 10
-28.3673
 20
11.259
 30
0.0
 10
-28.8706
 20
11.4622
 30
0.0
 10
-29.1895
 20
11.8686
 30
0.0
 10
-29.1895
 20
11.8686
 30
0.0
 10
-29.5085
 20
12.2741
 30
0.0
 10
-29.6684
 20
12.7849
 30
0.0
 10
-29.6684
 20
13.3982
 30
0.0
 10
-29.6684
 20
13.3982
 30
0.0
 10
-29.6684
 20
14.0248
 30
0.0
 10
-29.5028
 20
14.5393
 30
0.0
 10
-29.1717
 20
14.941
 30
0.0
 10
-29.1717
 20
14.941
 30
0.0
 10
-28.8405
 20
15.3427
 30
0.0
 10
-28.3335
 20
15.5431
 30
0.0
 10
-27.6486
 20
15.5431
 30
0.0
 10
-27.6486
 20
15.5431
 30
0.0
 10
-27.2846
 20
15.5431
 30
0.0
 10
-26.8575
 20
15.4829
 30
0.0
 10
-26.3664
 20
15.3625
 30
0.0
 10
-26.3664
 20
15.3625
 30
0.0
 10
-26.3664
 20
15.3625
 30
0.0
 10
-26.3664
 20
14.8206
 30
0.0
 10
-26.3664
 20
14.8206
 30
0.0
 10
-26.3664
 20
14.8206
 30
0.0
 10
-26.7784
 20
14.9617
 30
0.0
 10
-27.0616
 20
15.0445
 30
0.0
 10
-27.2168
 20
15.0699
 30
0.0
 10
-27.2168
 20
15.0699
 30
0.0
 10
-27.373
 20
15.0953
 30
0.0
 10
-27.5207
 20
15.1085
 30
0.0
 10
-27.6599
 20
15.1085
 30
0.0
 10
-27.6599
 20
15.1085
 30
0.0
 10
-28.1491
 20
15.1085
 30
0.0
 10
-28.5038
 20
14.9429
 30
0.0
 10
-28.7239
 20
14.6108
 30
0.0
 10
-28.7239
 20
14.6108
 30
0.0
 10
-28.9431
 20
14.2797
 30
0.0
 10
-29.0531
 20
13.8733
 30
0.0
 10
-29.0531
 20
13.3916
 30
0.0
 10
-29.0531
 20
13.3916
 30
0.0
 10
-29.0531
 20
12.8902
 30
0.0
 10
-28.9271
 20
12.4848
 30
0.0
 10
-28.674
 20
12.1753
 30
0.0
 10
-28.674
 20
12.1753
 30
0.0
 10
-28.421
 20
11.8658
 30
0.0
 10
-28.0625
 20
11.7106
 30
0.0
 10
-27.5997
 20
11.7106
 30
0.0
 10
-27.5997
 20
11.7106
 30
0.0
 10
-27.4708
 20
11.7106
 30
0.0
 10
-27.3419
 20
11.7218
 30
0.0
 10
-27.2149
 20
11.7454
 30
0.0
 10
-27.2149
 20
11.7454
 30
0.0
 10
-27.087
 20
11.7679
 30
0.0
 10
-26.9591
 20
11.8018
 30
0.0
 10
-26.8321
 20
11.847
 30
0.0
 10
-26.8321
 20
11.847
 30
0.0
 10
-26.706
 20
11.8921
 30
0.0
 10
-26.548
 20
11.9655
 30
0.0
 10
-26.3608
 20
12.0662
 30
0.0
 10
-26.3608
 20
12.0662
 30
0.0
 10
-26.3608
 20
12.0662
 30
0.0
 10
-26.3608
 20
11.5694
 30
0.0
 10
-26.3608
 20
11.5694
 30
0.0
  0
SPLINE
  5
85
330
1F
100
AcDbEntity
  8
Layer 1
 62
     1
100
AcDbSpline
210
0.0
220
0.0
230
1.0
 70
    11
 71
     3
 72
    52
 73
    48
 74
     0
 42
0.000000001
 43
0.0000000001
 40
0.0
 40
0.0
 40
0.0
 40
0.0
 40
0.0769230769230769
 40
0.0769230769230769
 40
0.0769230769230769
 40
0.0769230769230769
 40
0.1538461538461539
 40
0.1538461538461539
 40
0.1538461538461539
 40
0.1538461538461539
 40
0.2307692307692308
 40
0.2307692307692308
 40
0.2307692307692308
 40
0.2307692307692308
 40
0.3076923076923077
 40
0.3076923076923077
 40
0.3076923076923077
 40
0.3076923076923077
 40
0.3846153846153846
 40
0.3846153846153846
 40
0.3846153846153846
 40
0.3846153846153846
 40
0.4615384615384616
 40
0.4615384615384616
 40
0.4615384615384616
 40
0.4615384615384616
 40
0.5384615384615384
 40
0.5384615384615384
 40
0.5384615384615384
 40
0.5384615384615384
 40
0.6153846153846154
 40
0.6153846153846154
 40
0.6153846153846154
 40
0.6153846153846154
 40
0.6923076923076923
 40
0.6923076923076923
 40
0.6923076923076923
 40
0.6923076923076923
 40
0.7692307692307693
 40
0.7692307692307693
 40
0.7692307692307693
 40
0.7692307692307693
 40
0.8461538461538461
 40
0.8461538461538461
 40
0.8461538461538461
 40
0.8461538461538461
 40
1.0
 40
1.0
 40
1.0
 40
1.0
 10
-34.9568
 20
4.8319
 30
0.0
 10
-35.3434
 20
4.8319
 30
0.0
 10
-35.6792
 20
4.9184
 30
0.0
 10
-35.9662
 20
5.0906
 30
0.0
 10
-35.9662
 20
5.0906
 30
0.0
 10
-36.2521
 20
5.2637
 30
0.0
 10
-36.4742
 20
5.5158
 30
0.0
 10
-36.6313
 20
5.8479
 30
0.0
 10
-36.6313
 20
5.8479
 30
0.0
 10
-36.7884
 20
6.18
 30
0.0
 10
-36.8674
 20
6.5553
 30
0.0
 10
-36.8674
 20
6.974
 30
0.0
 10
-36.8674
 20
6.974
 30
0.0
 10
-36.8674
 20
7.3785
 30
0.0
 10
-36.7921
 20
7.7463
 30
0.0
 10
-36.6425
 20
8.0784
 30
0.0
 10
-36.6425
 20
8.0784
 30
0.0
 10
-36.492
 20
8.4095
 30
0.0
 10
-36.271
 20
8.6654
 30
0.0
 10
-35.9784
 20
8.846
 30
0.0
 10
-35.9784
 20
8.846
 30
0.0
 10
-35.6858
 20
9.0257
 30
0.0
 10
-35.3453
 20
9.116
 30
0.0
 10
-34.9568
 20
9.116
 30
0.0
 10
-34.9568
 20
9.116
 30
0.0
 10
-34.5682
 20
9.116
 30
0.0
 10
-34.2277
 20
9.0257
 30
0.0
 10
-33.9351
 20
8.846
 30
0.0
 10
-33.9351
 20
8.846
 30
0.0
 10
-33.6425
 20
8.6654
 30
0.0
 10
-33.4215
 20
8.4095
 30
0.0
 10
-33.271
 20
8.0784
 30
0.0
 10
-33.271
 20
8.0784
 30
0.0
 10
-33.1214
 20
7.7463
 30
0.0
 10
-33.0461
 20
7.3785
 30
0.0
 10
-33.0461
 20
6.974
 30
0.0
 10
-33.0461
 20
6.974
 30
0.0
 10
-33.0461
 20
6.5713
 30
0.0
 10
-33.1204
 20
6.2054
 30
0.0
 10
-33.2681
 20
5.8752
 30
0.0
 10
-33.2681
 20
5.8752
 30
0.0
 10
-33.4168
 20
5.545
 30
0.0
 10
-33.636
 20
5.2891
 30
0.0
 10
-33.9257
 20
5.1066
 30
0.0
 10
-33.9257
 20
5.1066
 30
0.0
 10
-34.2155
 20
4.9232
 30
0.0
 10
-34.5588
 20
4.8319
 30
0.0
 10
-34.9568
 20
4.8319
 30
0.0
  0
SPLINE
  5
86
330
1F
100
AcDbEntity
  8
Layer 1
 62
     1
100
AcDbSpline
210
0.0
220
0.0
230
1.0
 70
    11
 71
     3
 72
    36
 73
    32
 74
     0
 42
0.000000001
 43
0.0000000001
 40
0.0
 40
0.0
 40
0.0
 40
0.0
 40
0.1111111111111111
 40
0.1111111111111111
 40
0.1111111111111111
 40
0.1111111111111111
 40
0.2222222222222222
 40
0.2222222222222222
 40
0.2222222222222222
 40
0.2222222222222222
 40
0.3333333333333333
 40
0.3333333333333333
 40
0.3333333333333333
 40
0.3333333333333333
 40
0.4444444444444444
 40
0.4444444444444444
 40
0.4444444444444444
 40
0.4444444444444444
 40
0.5555555555555556
 40
0.5555555555555556
 40
0.5555555555555556
 40
0.5555555555555556
 40
0.6666666666666666
 40
0.6666666666666666
 40
0.6666666666666666
 40
0.6666666666666666
 40
0.7777777777777778
 40
0.7777777777777778
 40
0.7777777777777778
 40
0.7777777777777778
 40
1.0
 40
1.0
 40
1.0
 40
1.0
 10
-34.9568
 20
5.2665
 30
0.0
 10
-34.5447
 20
5.2665
 30
0.0
 10
-34.2249
 20
5.4199
 30
0.0
 10
-34.0
 20
5.7265
 30
0.0
 10
-34.0
 20
5.7265
 30
0.0
 10
-33.7742
 20
6.0332
 30
0.0
 10
-33.6614
 20
6.4509
 30
0.0
 10
-33.6614
 20
6.9796
 30
0.0
 10
-33.6614
 20
6.9796
 30
0.0
 10
-33.6614
 20
7.5064
 30
0.0
 10
-33.7752
 20
7.9222
 30
0.0
 10
-34.0028
 20
8.2261
 30
0.0
 10
-34.0028
 20
8.2261
 30
0.0
 10
-34.2296
 20
8.5299
 30
0.0
 10
-34.5475
 20
8.6814
 30
0.0
 10
-34.9568
 20
8.6814
 30
0.0
 10
-34.9568
 20
8.6814
 30
0.0
 10
-35.366
 20
8.6814
 30
0.0
 10
-35.6839
 20
8.5299
 30
0.0
 10
-35.9107
 20
8.2261
 30
0.0
 10
-35.9107
 20
8.2261
 30
0.0
 10
-36.1383
 20
7.9222
 30
0.0
 10
-36.2521
 20
7.5064
 30
0.0
 10
-36.2521
 20
6.9796
 30
0.0
 10
-36.2521
 20
6.9796
 30
0.0
 10
-36.2521
 20
6.4509
 30
0.0
 10
-36.1393
 20
6.0332
 30
0.0
 10
-35.9135
 20
5.7265
 30
0.0
 10
-35.9135
 20
5.7265
 30
0.0
 10
-35.6886
 20
5.4199
 30
0.0
 10
-35.3688
 20
5.2665
 30
0.0
 10
-34.9568
 20
5.2665
 30
0.0
  0
SPLINE
  5
87
330
1F
100
AcDbEntity
  8
Layer 1
 62
     1
100
AcDbSpline
210
0.0
220
0.0
230
1.0
 70
    11
 71
     3
 72
    44
 73
    40
 74
     0
 42
0.000000001
 43
0.0000000001
 40
0.0
 40
0.0
 40
0.0
 40
0.0
 40
0.0909090909090909
 40
0.0909090909090909
 40
0.0909090909090909
 40
0.0909090909090909
 40
0.1818181818181818
 40
0.1818181818181818
 40
0.1818181818181818
 40
0.1818181818181818
 40
0.2727272727272727
 40
0.2727272727272727
 40
0.2727272727272727
 40
0.2727272727272727
 40
0.3636363636363636
 40
0.3636363636363636
 40
0.3636363636363636
 40
0.3636363636363636
 40
0.4545454545454545
 40
0.4545454545454545
 40
0.4545454545454545
 40
0.4545454545454545
 40
0.5454545454545454
 40
0.5454545454545454
 40
0.5454545454545454
 40
0.5454545454545454
 40
0.6363636363636364
 40
0.6363636363636364
 40
0.6363636363636364
 40
0.6363636363636364
 40
0.7272727272727273
 40
0.7272727272727273
 40
0.7272727272727273
 40
0.7272727272727273
 40
0.8181818181818182
 40
0.8181818181818182
 40
0.8181818181818182
 40
0.8181818181818182
 40
1.0
 40
1.0
 40
1.0
 40
1.0
 10
-32.2455
 20
4.9335
 30
0.0
 10
-32.2455
 20
4.9335
 30
0.0
 10
-32.2455
 20
9.0144
 30
0.0
 10
-32.2455
 20
9.0144
 30
0.0
 10
-32.2455
 20
9.0144
 30
0.0
 10
-32.2455
 20
9.0144
 30
0.0
 10
-31.6773
 20
9.0144
 30
0.0
 10
-31.6773
 20
9.0144
 30
0.0
 10
-31.6773
 20
9.0144
 30
0.0
 10
-31.6773
 20
9.0144
 30
0.0
 10
-29.6265
 20
5.8639
 30
0.0
 10
-29.6265
 20
5.8639
 30
0.0
 10
-29.6265
 20
5.8639
 30
0.0
 10
-29.6265
 20
5.8639
 30
0.0
 10
-29.6265
 20
9.0144
 30
0.0
 10
-29.6265
 20
9.0144
 30
0.0
 10
-29.6265
 20
9.0144
 30
0.0
 10
-29.6265
 20
9.0144
 30
0.0
 10
-29.1298
 20
9.0144
 30
0.0
 10
-29.1298
 20
9.0144
 30
0.0
 10
-29.1298
 20
9.0144
 30
0.0
 10
-29.1298
 20
9.0144
 30
0.0
 10
-29.1298
 20
4.9335
 30
0.0
 10
-29.1298
 20
4.9335
 30
0.0
 10
-29.1298
 20
4.9335
 30
0.0
 10
-29.1298
 20
4.9335
 30
0.0
 10
-29.6952
 20
4.9335
 30
0.0
 10
-29.6952
 20
4.9335
 30
0.0
 10
-29.6952
 20
4.9335
 30
0.0
 10
-29.6952
 20
4.9335
 30
0.0
 10
-31.7488
 20
8.0887
 30
0.0
 10
-31.7488
 20
8.0887
 30
0.0
 10
-31.7488
 20
8.0887
 30
0.0
 10
-31.7488
 20
8.0887
 30
0.0
 10
-31.7488
 20
4.9335
 30
0.0
 10
-31.7488
 20
4.9335
 30
0.0
 10
-31.7488
 20
4.9335
 30
0.0
 10
-31.7488
 20
4.9335
 30
0.0
 10
-32.2455
 20
4.9335
 30
0.0
 10
-32.2455
 20
4.9335
 30
0.0
  0
SPLINE
  5
88
330
1F
100
AcDbEntity
  8
Layer 1
 62
     1
100
AcDbSpline
210
0.0
220
0.0
230
1.0
 70
    11
 71
     3
 72
    48
 73
    44
 74
     0
 42
0.000000001
 43
0.0000000001
 40
0.0
 40
0.0
 40
0.0
 40
0.0
 40
0.0833333333333333
 40
0.0833333333333333
 40
0.0833333333333333
 40
0.0833333333333333
 40
0.1666666666666667
 40
0.1666666666666667
 40
0.1666666666666667
 40
0.1666666666666667
 40
0.25
 40
0.25
 40
0.25
 40
0.25
 40
0.3333333333333333
 40
0.3333333333333333
 40
0.3333333333333333
 40
0.3333333333333333
 40
0.4166666666666667
 40
0.4166666666666667
 40
0.4166666666666667
 40
0.4166666666666667
 40
0.5
 40
0.5
 40
0.5
 40
0.5
 40
0.5833333333333334
 40
0.5833333333333334
 40
0.5833333333333334
 40
0.5833333333333334
 40
0.6666666666666666
 40
0.6666666666666666
 40
0.6666666666666666
 40
0.6666666666666666
 40
0.75
 40
0.75
 40
0.75
 40
0.75
 40
0.8333333333333334
 40
0.8333333333333334
 40
0.8333333333333334
 40
0.8333333333333334
 40
1.0
 40
1.0
 40
1.0
 40
1.0
 10
-8.6792
 20
11.3606
 30
0.0
 10
-8.6792
 20
11.3606
 30
0.0
 10
-8.6792
 20
15.4415
 30
0.0
 10
-8.6792
 20
15.4415
 30
0.0
 10
-8.6792
 20
15.4415
 30
0.0
 10
-8.6792
 20
15.4415
 30
0.0
 10
-7.588
 20
15.4415
 30
0.0
 10
-7.588
 20
15.4415
 30
0.0
 10
-7.588
 20
15.4415
 30
0.0
 10
-7.2004
 20
15.4415
 30
0.0
 10
-6.9219
 20
15.4029
 30
0.0
 10
-6.7535
 20
15.3258
 30
0.0
 10
-6.7535
 20
15.3258
 30
0.0
 10
-6.5842
 20
15.2487
 30
0.0
 10
-6.4553
 20
15.1301
 30
0.0
 10
-6.365
 20
14.9711
 30
0.0
 10
-6.365
 20
14.9711
 30
0.0
 10
-6.2747
 20
14.8112
 30
0.0
 10
-6.2295
 20
14.6118
 30
0.0
 10
-6.2295
 20
14.3738
 30
0.0
 10
-6.2295
 20
14.3738
 30
0.0
 10
-6.2295
 20
14.0944
 30
0.0
 10
-6.2888
 20
13.8507
 30
0.0
 10
-6.4073
 20
13.6409
 30
0.0
 10
-6.4073
 20
13.6409
 30
0.0
 10
-6.5268
 20
13.4321
 30
0.0
 10
-6.7178
 20
13.2703
 30
0.0
 10
-6.9803
 20
13.1565
 30
0.0
 10
-6.9803
 20
13.1565
 30
0.0
 10
-7.2427
 20
13.0426
 30
0.0
 10
-7.5325
 20
12.9862
 30
0.0
 10
-7.8485
 20
12.9862
 30
0.0
 10
-7.8485
 20
12.9862
 30
0.0
 10
-7.8485
 20
12.9862
 30
0.0
 10
-8.0978
 20
12.9862
 30
0.0
 10
-8.0978
 20
12.9862
 30
0.0
 10
-8.0978
 20
12.9862
 30
0.0
 10
-8.0978
 20
12.9862
 30
0.0
 10
-8.0978
 20
11.3606
 30
0.0
 10
-8.0978
 20
11.3606
 30
0.0
 10
-8.0978
 20
11.3606
 30
0.0
 10
-8.0978
 20
11.3606
 30
0.0
 10
-8.6792
 20
11.3606
 30
0.0
 10
-8.6792
 20
11.3606
 30
0.0
  0
SPLINE
  5
89
330
1F
100
AcDbEntity
  8
Layer 1
 62
     1
100
AcDbSpline
210
0.0
220
0.0
230
1.0
 70
    11
 71
     3
 72
    36
 73
    32
 74
     0
 42
0.000000001
 43
0.0000000001
 40
0.0
 40
0.0
 40
0.0
 40
0.0
 40
0.1111111111111111
 40
0.1111111111111111
 40
0.1111111111111111
 40
0.1111111111111111
 40
0.2222222222222222
 40
0.2222222222222222
 40
0.2222222222222222
 40
0.2222222222222222
 40
0.3333333333333333
 40
0.3333333333333333
 40
0.3333333333333333
 40
0.3333333333333333
 40
0.4444444444444444
 40
0.4444444444444444
 40
0.4444444444444444
 40
0.4444444444444444
 40
0.5555555555555556
 40
0.5555555555555556
 40
0.5555555555555556
 40
0.5555555555555556
 40
0.6666666666666666
 40
0.6666666666666666
 40
0.6666666666666666
 40
0.6666666666666666
 40
0.7777777777777778
 40
0.7777777777777778
 40
0.7777777777777778
 40
0.7777777777777778
 40
1.0
 40
1.0
 40
1.0
 40
1.0
 10
-8.0978
 20
13.4208
 30
0.0
 10
-8.0978
 20
13.4208
 30
0.0
 10
-7.8739
 20
13.4208
 30
0.0
 10
-7.8739
 20
13.4208
 30
0.0
 10
-7.8739
 20
13.4208
 30
0.0
 10
-7.5071
 20
13.4208
 30
0.0
 10
-7.2437
 20
13.5083
 30
0.0
 10
-7.0847
 20
13.6823
 30
0.0
 10
-7.0847
 20
13.6823
 30
0.0
 10
-6.9247
 20
13.8564
 30
0.0
 10
-6.8448
 20
14.0727
 30
0.0
 10
-6.8448
 20
14.3296
 30
0.0
 10
-6.8448
 20
14.3296
 30
0.0
 10
-6.8448
 20
14.4688
 30
0.0
 10
-6.8702
 20
14.5873
 30
0.0
 10
-6.921
 20
14.6833
 30
0.0
 10
-6.921
 20
14.6833
 30
0.0
 10
-6.9718
 20
14.7802
 30
0.0
 10
-7.0536
 20
14.8573
 30
0.0
 10
-7.1656
 20
14.9175
 30
0.0
 10
-7.1656
 20
14.9175
 30
0.0
 10
-7.2785
 20
14.9768
 30
0.0
 10
-7.476
 20
15.0069
 30
0.0
 10
-7.7582
 20
15.0069
 30
0.0
 10
-7.7582
 20
15.0069
 30
0.0
 10
-7.7582
 20
15.0069
 30
0.0
 10
-8.0978
 20
15.0069
 30
0.0
 10
-8.0978
 20
15.0069
 30
0.0
 10
-8.0978
 20
15.0069
 30
0.0
 10
-8.0978
 20
15.0069
 30
0.0
 10
-8.0978
 20
13.4208
 30
0.0
 10
-8.0978
 20
13.4208
 30
0.0
  0
SPLINE
  5
8A
330
1F
100
AcDbEntity
  8
Layer 1
 62
     1
100
AcDbSpline
210
0.0
220
0.0
230
1.0
 70
    11
 71
     3
 72
    52
 73
    48
 74
     0
 42
0.000000001
 43
0.0000000001
 40
0.0
 40
0.0
 40
0.0
 40
0.0
 40
0.0769230769230769
 40
0.0769230769230769
 40
0.0769230769230769
 40
0.0769230769230769
 40
0.1538461538461539
 40
0.1538461538461539
 40
0.1538461538461539
 40
0.1538461538461539
 40
0.2307692307692308
 40
0.2307692307692308
 40
0.2307692307692308
 40
0.2307692307692308
 40
0.3076923076923077
 40
0.3076923076923077
 40
0.3076923076923077
 40
0.3076923076923077
 40
0.3846153846153846
 40
0.3846153846153846
 40
0.3846153846153846
 40
0.3846153846153846
 40
0.4615384615384616
 40
0.4615384615384616
 40
0.4615384615384616
 40
0.4615384615384616
 40
0.5384615384615384
 40
0.5384615384615384
 40
0.5384615384615384
 40
0.5384615384615384
 40
0.6153846153846154
 40
0.6153846153846154
 40
0.6153846153846154
 40
0.6153846153846154
 40
0.6923076923076923
 40
0.6923076923076923
 40
0.6923076923076923
 40
0.6923076923076923
 40
0.7692307692307693
 40
0.7692307692307693
 40
0.7692307692307693
 40
0.7692307692307693
 40
0.8461538461538461
 40
0.8461538461538461
 40
0.8461538461538461
 40
0.8461538461538461
 40
1.0
 40
1.0
 40
1.0
 40
1.0
 10
-5.5597
 20
11.3606
 30
0.0
 10
-5.5597
 20
11.3606
 30
0.0
 10
-5.5597
 20
15.4415
 30
0.0
 10
-5.5597
 20
15.4415
 30
0.0
 10
-5.5597
 20
15.4415
 30
0.0
 10
-5.5597
 20
15.4415
 30
0.0
 10
-3.2681
 20
15.4415
 30
0.0
 10
-3.2681
 20
15.4415
 30
0.0
 10
-3.2681
 20
15.4415
 30
0.0
 10
-3.2681
 20
15.4415
 30
0.0
 10
-3.2681
 20
15.0069
 30
0.0
 10
-3.2681
 20
15.0069
 30
0.0
 10
-3.2681
 20
15.0069
 30
0.0
 10
-3.2681
 20
15.0069
 30
0.0
 10
-4.9783
 20
15.0069
 30
0.0
 10
-4.9783
 20
15.0069
 30
0.0
 10
-4.9783
 20
15.0069
 30
0.0
 10
-4.9783
 20
15.0069
 30
0.0
 10
-4.9783
 20
13.7087
 30
0.0
 10
-4.9783
 20
13.7087
 30
0.0
 10
-4.9783
 20
13.7087
 30
0.0
 10
-4.9783
 20
13.7087
 30
0.0
 10
-3.5447
 20
13.7087
 30
0.0
 10
-3.5447
 20
13.7087
 30
0.0
 10
-3.5447
 20
13.7087
 30
0.0
 10
-3.5447
 20
13.7087
 30
0.0
 10
-3.5447
 20
13.2741
 30
0.0
 10
-3.5447
 20
13.2741
 30
0.0
 10
-3.5447
 20
13.2741
 30
0.0
 10
-3.5447
 20
13.2741
 30
0.0
 10
-4.9783
 20
13.2741
 30
0.0
 10
-4.9783
 20
13.2741
 30
0.0
 10
-4.9783
 20
13.2741
 30
0.0
 10
-4.9783
 20
13.2741
 30
0.0
 10
-4.9783
 20
11.7952
 30
0.0
 10
-4.9783
 20
11.7952
 30
0.0
 10
-4.9783
 20
11.7952
 30
0.0
 10
-4.9783
 20
11.7952
 30
0.0
 10
-3.1496
 20
11.7952
 30
0.0
 10
-3.1496
 20
11.7952
 30
0.0
 10
-3.1496
 20
11.7952
 30
0.0
 10
-3.1496
 20
11.7952
 30
0.0
 10
-3.1496
 20
11.3606
 30
0.0
 10
-3.1496
 20
11.3606
 30
0.0
 10
-3.1496
 20
11.3606
 30
0.0
 10
-3.1496
 20
11.3606
 30
0.0
 10
-5.5597
 20
11.3606
 30
0.0
 10
-5.5597
 20
11.3606
 30
0.0
  0
SPLINE
  5
8B
330
1F
100
AcDbEntity
  8
Layer 1
 62
     1
100
AcDbSpline
210
0.0
220
0.0
230
1.0
 70
    11
 71
     3
 72
    56
 73
    52
 74
     0
 42
0.000000001
 43
0.0000000001
 40
0.0
 40
0.0
 40
0.0
 40
0.0
 40
0.0714285714285714
 40
0.0714285714285714
 40
0.0714285714285714
 40
0.0714285714285714
 40
0.1428571428571428
 40
0.1428571428571428
 40
0.1428571428571428
 40
0.1428571428571428
 40
0.2142857142857143
 40
0.2142857142857143
 40
0.2142857142857143
 40
0.2142857142857143
 40
0.2857142857142857
 40
0.2857142857142857
 40
0.2857142857142857
 40
0.2857142857142857
 40
0.3571428571428572
 40
0.3571428571428572
 40
0.3571428571428572
 40
0.3571428571428572
 40
0.4285714285714285
 40
0.4285714285714285
 40
0.4285714285714285
 40
0.4285714285714285
 40
0.5
 40
0.5
 40
0.5
 40
0.5
 40
0.5714285714285714
 40
0.5714285714285714
 40
0.5714285714285714
 40
0.5714285714285714
 40
0.6428571428571429
 40
0.6428571428571429
 40
0.6428571428571429
 40
0.6428571428571429
 40
0.7142857142857143
 40
0.7142857142857143
 40
0.7142857142857143
 40
0.7142857142857143
 40
0.7857142857142857
 40
0.7857142857142857
 40
0.7857142857142857
 40
0.7857142857142857
 40
0.8571428571428571
 40
0.8571428571428571
 40
0.8571428571428571
 40
0.8571428571428571
 40
1.0
 40
1.0
 40
1.0
 40
1.0
 10
-2.5004
 20
11.3606
 30
0.0
 10
-2.5004
 20
11.3606
 30
0.0
 10
-2.5004
 20
15.4415
 30
0.0
 10
-2.5004
 20
15.4415
 30
0.0
 10
-2.5004
 20
15.4415
 30
0.0
 10
-2.5004
 20
15.4415
 30
0.0
 10
-1.2662
 20
15.4415
 30
0.0
 10
-1.2662
 20
15.4415
 30
0.0
 10
-1.2662
 20
15.4415
 30
0.0
 10
-0.809
 20
15.4415
 30
0.0
 10
-0.4929
 20
15.339
 30
0.0
 10
-0.3179
 20
15.1339
 30
0.0
 10
-0.3179
 20
15.1339
 30
0.0
 10
-0.1439
 20
14.9288
 30
0.0
 10
-0.0564
 20
14.6936
 30
0.0
 10
-0.0564
 20
14.4283
 30
0.0
 10
-0.0564
 20
14.4283
 30
0.0
 10
-0.0564
 20
14.2731
 30
0.0
 10
-0.0874
 20
14.1207
 30
0.0
 10
-0.1486
 20
13.9693
 30
0.0
 10
-0.1486
 20
13.9693
 30
0.0
 10
-0.2097
 20
13.8187
 30
0.0
 10
-0.2963
 20
13.6842
 30
0.0
 10
-0.4101
 20
13.5666
 30
0.0
 10
-0.4101
 20
13.5666
 30
0.0
 10
-0.523
 20
13.449
 30
0.0
 10
-0.6773
 20
13.3493
 30
0.0
 10
-0.8729
 20
13.2684
 30
0.0
 10
-0.8729
 20
13.2684
 30
0.0
 10
-0.8729
 20
13.2684
 30
0.0
 10
0.4798
 20
11.3606
 30
0.0
 10
0.4798
 20
11.3606
 30
0.0
 10
0.4798
 20
11.3606
 30
0.0
 10
0.4798
 20
11.3606
 30
0.0
 10
-0.2285
 20
11.3606
 30
0.0
 10
-0.2285
 20
11.3606
 30
0.0
 10
-0.2285
 20
11.3606
 30
0.0
 10
-0.2285
 20
11.3606
 30
0.0
 10
-1.3809
 20
13.0821
 30
0.0
 10
-1.3809
 20
13.0821
 30
0.0
 10
-1.3809
 20
13.0821
 30
0.0
 10
-1.3809
 20
13.0821
 30
0.0
 10
-1.919
 20
13.0821
 30
0.0
 10
-1.919
 20
13.0821
 30
0.0
 10
-1.919
 20
13.0821
 30
0.0
 10
-1.919
 20
13.0821
 30
0.0
 10
-1.919
 20
11.3606
 30
0.0
 10
-1.919
 20
11.3606
 30
0.0
 10
-1.919
 20
11.3606
 30
0.0
 10
-1.919
 20
11.3606
 30
0.0
 10
-2.5004
 20
11.3606
 30
0.0
 10
-2.5004
 20
11.3606
 30
0.0
  0
SPLINE
  5
8C
330
1F
100
AcDbEntity
  8
Layer 1
 62
     1
100
AcDbSpline
210
0.0
220
0.0
230
1.0
 70
    11
 71
     3
 72
    36
 73
    32
 74
     0
 42
0.000000001
 43
0.0000000001
 40
0.0
 40
0.0
 40
0.0
 40
0.0
 40
0.1111111111111111
 40
0.1111111111111111
 40
0.1111111111111111
 40
0.1111111111111111
 40
0.2222222222222222
 40
0.2222222222222222
 40
0.2222222222222222
 40
0.2222222222222222
 40
0.3333333333333333
 40
0.3333333333333333
 40
0.3333333333333333
 40
0.3333333333333333
 40
0.4444444444444444
 40
0.4444444444444444
 40
0.4444444444444444
 40
0.4444444444444444
 40
0.5555555555555556
 40
0.5555555555555556
 40
0.5555555555555556
 40
0.5555555555555556
 40
0.6666666666666666
 40
0.6666666666666666
 40
0.6666666666666666
 40
0.6666666666666666
 40
0.7777777777777778
 40
0.7777777777777778
 40
0.7777777777777778
 40
0.7777777777777778
 40
1.0
 40
1.0
 40
1.0
 40
1.0
 10
-1.919
 20
13.5168
 30
0.0
 10
-1.919
 20
13.5168
 30
0.0
 10
-1.7328
 20
13.5168
 30
0.0
 10
-1.7328
 20
13.5168
 30
0.0
 10
-1.7328
 20
13.5168
 30
0.0
 10
-1.3057
 20
13.5168
 30
0.0
 10
-1.0188
 20
13.6061
 30
0.0
 10
-0.8711
 20
13.7849
 30
0.0
 10
-0.8711
 20
13.7849
 30
0.0
 10
-0.7234
 20
13.9627
 30
0.0
 10
-0.6491
 20
14.1593
 30
0.0
 10
-0.6491
 20
14.3719
 30
0.0
 10
-0.6491
 20
14.3719
 30
0.0
 10
-0.6491
 20
14.4989
 30
0.0
 10
-0.6773
 20
14.6099
 30
0.0
 10
-0.7328
 20
14.7049
 30
0.0
 10
-0.7328
 20
14.7049
 30
0.0
 10
-0.7883
 20
14.799
 30
0.0
 10
-0.8748
 20
14.8733
 30
0.0
 10
-0.9924
 20
14.9269
 30
0.0
 10
-0.9924
 20
14.9269
 30
0.0
 10
-1.11
 20
14.9805
 30
0.0
 10
-1.2991
 20
15.0069
 30
0.0
 10
-1.5578
 20
15.0069
 30
0.0
 10
-1.5578
 20
15.0069
 30
0.0
 10
-1.5578
 20
15.0069
 30
0.0
 10
-1.919
 20
15.0069
 30
0.0
 10
-1.919
 20
15.0069
 30
0.0
 10
-1.919
 20
15.0069
 30
0.0
 10
-1.919
 20
15.0069
 30
0.0
 10
-1.919
 20
13.5168
 30
0.0
 10
-1.919
 20
13.5168
 30
0.0
  0
SPLINE
  5
8D
330
1F
100
AcDbEntity
  8
Layer 1
 62
     1
100
AcDbSpline
210
0.0
220
0.0
230
1.0
 70
    11
 71
     3
 72
    80
 73
    76
 74
     0
 42
0.000000001
 43
0.0000000001
 40
0.0
 40
0.0
 40
0.0
 40
0.0
 40
0.05
 40
0.05
 40
0.05
 40
0.05
 40
0.1
 40
0.1
 40
0.1
 40
0.1
 40
0.15
 40
0.15
 40
0.15
 40
0.15
 40
0.2
 40
0.2
 40
0.2
 40
0.2
 40
0.25
 40
0.25
 40
0.25
 40
0.25
 40
0.3
 40
0.3
 40
0.3
 40
0.3
 40
0.35
 40
0.35
 40
0.35
 40
0.35
 40
0.4
 40
0.4
 40
0.4
 40
0.4
 40
0.45
 40
0.45
 40
0.45
 40
0.45
 40
0.5
 40
0.5
 40
0.5
 40
0.5
 40
0.55
 40
0.55
 40
0.55
 40
0.55
 40
0.6
 40
0.6
 40
0.6
 40
0.6
 40
0.65
 40
0.65
 40
0.65
 40
0.65
 40
0.7
 40
0.7
 40
0.7
 40
0.7
 40
0.75
 40
0.75
 40
0.75
 40
0.75
 40
0.8
 40
0.8
 40
0.8
 40
0.8
 40
0.85
 40
0.85
 40
0.85
 40
0.85
 40
0.9
 40
0.9
 40
0.9
 40
0.9
 40
1.0
 40
1.0
 40
1.0
 40
1.0
 10
4.1392
 20
11.5694
 30
0.0
 10
3.9718
 20
11.4838
 30
0.0
 10
3.8222
 20
11.4199
 30
0.0
 10
3.6914
 20
11.3785
 30
0.0
 10
3.6914
 20
11.3785
 30
0.0
 10
3.5597
 20
11.3371
 30
0.0
 10
3.4233
 20
11.307
 30
0.0
 10
3.2813
 20
11.2882
 30
0.0
 10
3.2813
 20
11.2882
 30
0.0
 10
3.1402
 20
11.2684
 30
0.0
 10
2.9859
 20
11.259
 30
0.0
 10
2.8203
 20
11.259
 30
0.0
 10
2.8203
 20
11.259
 30
0.0
 10
2.1327
 20
11.259
 30
0.0
 10
1.6294
 20
11.4622
 30
0.0
 10
1.3105
 20
11.8686
 30
0.0
 10
1.3105
 20
11.8686
 30
0.0
 10
0.9915
 20
12.2741
 30
0.0
 10
0.8316
 20
12.7849
 30
0.0
 10
0.8316
 20
13.3982
 30
0.0
 10
0.8316
 20
13.3982
 30
0.0
 10
0.8316
 20
14.0248
 30
0.0
 10
0.9972
 20
14.5393
 30
0.0
 10
1.3283
 20
14.941
 30
0.0
 10
1.3283
 20
14.941
 30
0.0
 10
1.6595
 20
15.3427
 30
0.0
 10
2.1665
 20
15.5431
 30
0.0
 10
2.8514
 20
15.5431
 30
0.0
 10
2.8514
 20
15.5431
 30
0.0
 10
3.2154
 20
15.5431
 30
0.0
 10
3.6425
 20
15.4829
 30
0.0
 10
4.1336
 20
15.3625
 30
0.0
 10
4.1336
 20
15.3625
 30
0.0
 10
4.1336
 20
15.3625
 30
0.0
 10
4.1336
 20
14.8206
 30
0.0
 10
4.1336
 20
14.8206
 30
0.0
 10
4.1336
 20
14.8206
 30
0.0
 10
3.7216
 20
14.9617
 30
0.0
 10
3.4384
 20
15.0445
 30
0.0
 10
3.2832
 20
15.0699
 30
0.0
 10
3.2832
 20
15.0699
 30
0.0
 10
3.127
 20
15.0953
 30
0.0
 10
2.9793
 20
15.1085
 30
0.0
 10
2.8401
 20
15.1085
 30
0.0
 10
2.8401
 20
15.1085
 30
0.0
 10
2.3509
 20
15.1085
 30
0.0
 10
1.9962
 20
14.9429
 30
0.0
 10
1.7761
 20
14.6108
 30
0.0
 10
1.7761
 20
14.6108
 30
0.0
 10
1.5569
 20
14.2797
 30
0.0
 10
1.4469
 20
13.8733
 30
0.0
 10
1.4469
 20
13.3916
 30
0.0
 10
1.4469
 20
13.3916
 30
0.0
 10
1.4469
 20
12.8902
 30
0.0
 10
1.5729
 20
12.4848
 30
0.0
 10
1.826
 20
12.1753
 30
0.0
 10
1.826
 20
12.1753
 30
0.0
 10
2.079
 20
11.8658
 30
0.0
 10
2.4375
 20
11.7106
 30
0.0
 10
2.9003
 20
11.7106
 30
0.0
 10
2.9003
 20
11.7106
 30
0.0
 10
3.0292
 20
11.7106
 30
0.0
 10
3.1581
 20
11.7218
 30
0.0
 10
3.2851
 20
11.7454
 30
0.0
 10
3.2851
 20
11.7454
 30
0.0
 10
3.413
 20
11.7679
 30
0.0
 10
3.5409
 20
11.8018
 30
0.0
 10
3.6679
 20
11.847
 30
0.0
 10
3.6679
 20
11.847
 30
0.0
 10
3.794
 20
11.8921
 30
0.0
 10
3.952
 20
11.9655
 30
0.0
 10
4.1392
 20
12.0662
 30
0.0
 10
4.1392
 20
12.0662
 30
0.0
 10
4.1392
 20
12.0662
 30
0.0
 10
4.1392
 20
11.5694
 30
0.0
 10
4.1392
 20
11.5694
 30
0.0
  0
SPLINE
  5
8E
330
1F
100
AcDbEntity
  8
Layer 1
 62
     1
100
AcDbSpline
210
0.0
220
0.0
230
1.0
 70
    11
 71
     3
 72
   120
 73
   116
 74
     0
 42
0.000000001
 43
0.0000000001
 40
0.0
 40
0.0
 40
0.0
 40
0.0
 40
0.0333333333333333
 40
0.0333333333333333
 40
0.0333333333333333
 40
0.0333333333333333
 40
0.0666666666666667
 40
0.0666666666666667
 40
0.0666666666666667
 40
0.0666666666666667
 40
0.1
 40
0.1
 40
0.1
 40
0.1
 40
0.1333333333333333
 40
0.1333333333333333
 40
0.1333333333333333
 40
0.1333333333333333
 40
0.1666666666666667
 40
0.1666666666666667
 40
0.1666666666666667
 40
0.1666666666666667
 40
0.2
 40
0.2
 40
0.2
 40
0.2
 40
0.2333333333333333
 40
0.2333333333333333
 40
0.2333333333333333
 40
0.2333333333333333
 40
0.2666666666666667
 40
0.2666666666666667
 40
0.2666666666666667
 40
0.2666666666666667
 40
0.3
 40
0.3
 40
0.3
 40
0.3
 40
0.3333333333333333
 40
0.3333333333333333
 40
0.3333333333333333
 40
0.3333333333333333
 40
0.3666666666666666
 40
0.3666666666666666
 40
0.3666666666666666
 40
0.3666666666666666
 40
0.4
 40
0.4
 40
0.4
 40
0.4
 40
0.4333333333333333
 40
0.4333333333333333
 40
0.4333333333333333
 40
0.4333333333333333
 40
0.4666666666666667
 40
0.4666666666666667
 40
0.4666666666666667
 40
0.4666666666666667
 40
0.5
 40
0.5
 40
0.5
 40
0.5
 40
0.5333333333333333
 40
0.5333333333333333
 40
0.5333333333333333
 40
0.5333333333333333
 40
0.5666666666666667
 40
0.5666666666666667
 40
0.5666666666666667
 40
0.5666666666666667
 40
0.6
 40
0.6
 40
0.6
 40
0.6
 40
0.6333333333333333
 40
0.6333333333333333
 40
0.6333333333333333
 40
0.6333333333333333
 40
0.6666666666666666
 40
0.6666666666666666
 40
0.6666666666666666
 40
0.6666666666666666
 40
0.7
 40
0.7
 40
0.7
 40
0.7
 40
0.7333333333333333
 40
0.7333333333333333
 40
0.7333333333333333
 40
0.7333333333333333
 40
0.7666666666666667
 40
0.7666666666666667
 40
0.7666666666666667
 40
0.7666666666666667
 40
0.8
 40
0.8
 40
0.8
 40
0.8
 40
0.8333333333333334
 40
0.8333333333333334
 40
0.8333333333333334
 40
0.8333333333333334
 40
0.8666666666666667
 40
0.8666666666666667
 40
0.8666666666666667
 40
0.8666666666666667
 40
0.9
 40
0.9
 40
0.9
 40
0.9
 40
0.9333333333333333
 40
0.9333333333333333
 40
0.9333333333333333
 40
0.9333333333333333
 40
1.0
 40
1.0
 40
1.0
 40
1.0
 10
-9.0997
 20
5.0125
 30
0.0
 10
-9.0997
 20
5.0125
 30
0.0
 10
-9.0997
 20
5.5883
 30
0.0
 10
-9.0997
 20
5.5883
 30
0.0
 10
-9.0997
 20
5.5883
 30
0.0
 10
-8.7704
 20
5.4368
 30
0.0
 10
-8.5305
 20
5.3455
 30
0.0
 10
-8.3791
 20
5.3136
 30
0.0
 10
-8.3791
 20
5.3136
 30
0.0
 10
-8.2267
 20
5.2825
 30
0.0
 10
-8.0865
 20
5.2665
 30
0.0
 10
-7.9576
 20
5.2665
 30
0.0
 10
-7.9576
 20
5.2665
 30
0.0
 10
-7.7224
 20
5.2665
 30
0.0
 10
-7.5371
 20
5.3305
 30
0.0
 10
-7.4017
 20
5.4575
 30
0.0
 10
-7.4017
 20
5.4575
 30
0.0
 10
-7.2652
 20
5.5854
 30
0.0
 10
-7.1975
 20
5.7378
 30
0.0
 10
-7.1975
 20
5.9156
 30
0.0
 10
-7.1975
 20
5.9156
 30
0.0
 10
-7.1975
 20
6.0502
 30
0.0
 10
-7.2333
 20
6.1734
 30
0.0
 10
-7.3038
 20
6.2872
 30
0.0
 10
-7.3038
 20
6.2872
 30
0.0
 10
-7.3772
 20
6.3992
 30
0.0
 10
-7.5559
 20
6.5356
 30
0.0
 10
-7.8419
 20
6.6974
 30
0.0
 10
-7.8419
 20
6.6974
 30
0.0
 10
-7.8419
 20
6.6974
 30
0.0
 10
-8.1251
 20
6.8601
 30
0.0
 10
-8.1251
 20
6.8601
 30
0.0
 10
-8.1251
 20
6.8601
 30
0.0
 10
-8.5014
 20
7.0737
 30
0.0
 10
-8.7544
 20
7.2684
 30
0.0
 10
-8.8833
 20
7.4443
 30
0.0
 10
-8.8833
 20
7.4443
 30
0.0
 10
-9.0122
 20
7.6212
 30
0.0
 10
-9.0771
 20
7.8168
 30
0.0
 10
-9.0771
 20
8.0323
 30
0.0
 10
-9.0771
 20
8.0323
 30
0.0
 10
-9.0771
 20
8.2251
 30
0.0
 10
-9.0254
 20
8.4067
 30
0.0
 10
-8.9228
 20
8.5751
 30
0.0
 10
-8.9228
 20
8.5751
 30
0.0
 10
-8.8203
 20
8.7444
 30
0.0
 10
-8.682
 20
8.8771
 30
0.0
 10
-8.5089
 20
8.973
 30
0.0
 10
-8.5089
 20
8.973
 30
0.0
 10
-8.3367
 20
9.068
 30
0.0
 10
-8.1185
 20
9.116
 30
0.0
 10
-7.8551
 20
9.116
 30
0.0
 10
-7.8551
 20
9.116
 30
0.0
 10
-7.539
 20
9.116
 30
0.0
 10
-7.205
 20
9.0633
 30
0.0
 10
-6.8532
 20
8.958
 30
0.0
 10
-6.8532
 20
8.958
 30
0.0
 10
-6.8532
 20
8.958
 30
0.0
 10
-6.8532
 20
8.4274
 30
0.0
 10
-6.8532
 20
8.4274
 30
0.0
 10
-6.8532
 20
8.4274
 30
0.0
 10
-7.1599
 20
8.5469
 30
0.0
 10
-7.3697
 20
8.6193
 30
0.0
 10
-7.4835
 20
8.6438
 30
0.0
 10
-7.4835
 20
8.6438
 30
0.0
 10
-7.5983
 20
8.6692
 30
0.0
 10
-7.7121
 20
8.6814
 30
0.0
 10
-7.825
 20
8.6814
 30
0.0
 10
-7.825
 20
8.6814
 30
0.0
 10
-8.063
 20
8.6814
 30
0.0
 10
-8.2389
 20
8.6202
 30
0.0
 10
-8.3527
 20
8.497
 30
0.0
 10
-8.3527
 20
8.497
 30
0.0
 10
-8.4666
 20
8.3738
 30
0.0
 10
-8.524
 20
8.2486
 30
0.0
 10
-8.524
 20
8.1198
 30
0.0
 10
-8.524
 20
8.1198
 30
0.0
 10
-8.524
 20
8.0323
 30
0.0
 10
-8.4967
 20
7.9429
 30
0.0
 10
-8.443
 20
7.8517
 30
0.0
 10
-8.443
 20
7.8517
 30
0.0
 10
-8.3894
 20
7.7613
 30
0.0
 10
-8.317
 20
7.6833
 30
0.0
 10
-8.2257
 20
7.6184
 30
0.0
 10
-8.2257
 20
7.6184
 30
0.0
 10
-8.1345
 20
7.5525
 30
0.0
 10
-8.0094
 20
7.4754
 30
0.0
 10
-7.8504
 20
7.386
 30
0.0
 10
-7.8504
 20
7.386
 30
0.0
 10
-7.8504
 20
7.386
 30
0.0
 10
-7.5569
 20
7.2204
 30
0.0
 10
-7.5569
 20
7.2204
 30
0.0
 10
-7.5569
 20
7.2204
 30
0.0
 10
-7.1768
 20
7.005
 30
0.0
 10
-6.9228
 20
6.8084
 30
0.0
 10
-6.7958
 20
6.6296
 30
0.0
 10
-6.7958
 20
6.6296
 30
0.0
 10
-6.6688
 20
6.45
 30
0.0
 10
-6.6049
 20
6.243
 30
0.0
 10
-6.6049
 20
6.0097
 30
0.0
 10
-6.6049
 20
6.0097
 30
0.0
 10
-6.6049
 20
5.6917
 30
0.0
 10
-6.7262
 20
5.4152
 30
0.0
 10
-6.9689
 20
5.1819
 30
0.0
 10
-6.9689
 20
5.1819
 30
0.0
 10
-7.2116
 20
4.9486
 30
0.0
 10
-7.5691
 20
4.8319
 30
0.0
 10
-8.0423
 20
4.8319
 30
0.0
 10
-8.0423
 20
4.8319
 30
0.0
 10
-8.1881
 20
4.8319
 30
0.0
 10
-8.3292
 20
4.8413
 30
0.0
 10
-8.4656
 20
4.8611
 30
0.0
 10
-8.4656
 20
4.8611
 30
0.0
 10
-8.602
 20
4.8808
 30
0.0
 10
-8.8137
 20
4.9307
 30
0.0
 10
-9.0997
 20
5.0125
 30
0.0
  0
SPLINE
  5
8F
330
1F
100
AcDbEntity
  8
Layer 1
 62
     1
100
AcDbSpline
210
0.0
220
0.0
230
1.0
 70
    11
 71
     3
 72
    52
 73
    48
 74
     0
 42
0.000000001
 43
0.0000000001
 40
0.0
 40
0.0
 40
0.0
 40
0.0
 40
0.0769230769230769
 40
0.0769230769230769
 40
0.0769230769230769
 40
0.0769230769230769
 40
0.1538461538461539
 40
0.1538461538461539
 40
0.1538461538461539
 40
0.1538461538461539
 40
0.2307692307692308
 40
0.2307692307692308
 40
0.2307692307692308
 40
0.2307692307692308
 40
0.3076923076923077
 40
0.3076923076923077
 40
0.3076923076923077
 40
0.3076923076923077
 40
0.3846153846153846
 40
0.3846153846153846
 40
0.3846153846153846
 40
0.3846153846153846
 40
0.4615384615384616
 40
0.4615384615384616
 40
0.4615384615384616
 40
0.4615384615384616
 40
0.5384615384615384
 40
0.5384615384615384
 40
0.5384615384615384
 40
0.5384615384615384
 40
0.6153846153846154
 40
0.6153846153846154
 40
0.6153846153846154
 40
0.6153846153846154
 40
0.6923076923076923
 40
0.6923076923076923
 40
0.6923076923076923
 40
0.6923076923076923
 40
0.7692307692307693
 40
0.7692307692307693
 40
0.7692307692307693
 40
0.7692307692307693
 40
0.8461538461538461
 40
0.8461538461538461
 40
0.8461538461538461
 40
0.8461538461538461
 40
1.0
 40
1.0
 40
1.0
 40
1.0
 10
-4.1496
 20
4.8319
 30
0.0
 10
-4.5362
 20
4.8319
 30
0.0
 10
-4.872
 20
4.9184
 30
0.0
 10
-5.159
 20
5.0906
 30
0.0
 10
-5.159
 20
5.0906
 30
0.0
 10
-5.4449
 20
5.2637
 30
0.0
 10
-5.667
 20
5.5158
 30
0.0
 10
-5.8241
 20
5.8479
 30
0.0
 10
-5.8241
 20
5.8479
 30
0.0
 10
-5.9812
 20
6.18
 30
0.0
 10
-6.0602
 20
6.5553
 30
0.0
 10
-6.0602
 20
6.974
 30
0.0
 10
-6.0602
 20
6.974
 30
0.0
 10
-6.0602
 20
7.3785
 30
0.0
 10
-5.9849
 20
7.7463
 30
0.0
 10
-5.8353
 20
8.0784
 30
0.0
 10
-5.8353
 20
8.0784
 30
0.0
 10
-5.6848
 20
8.4095
 30
0.0
 10
-5.4638
 20
8.6654
 30
0.0
 10
-5.1712
 20
8.846
 30
0.0
 10
-5.1712
 20
8.846
 30
0.0
 10
-4.8786
 20
9.0257
 30
0.0
 10
-4.5381
 20
9.116
 30
0.0
 10
-4.1496
 20
9.116
 30
0.0
 10
-4.1496
 20
9.116
 30
0.0
 10
-3.761
 20
9.116
 30
0.0
 10
-3.4205
 20
9.0257
 30
0.0
 10
-3.1279
 20
8.846
 30
0.0
 10
-3.1279
 20
8.846
 30
0.0
 10
-2.8353
 20
8.6654
 30
0.0
 10
-2.6143
 20
8.4095
 30
0.0
 10
-2.4638
 20
8.0784
 30
0.0
 10
-2.4638
 20
8.0784
 30
0.0
 10
-2.3142
 20
7.7463
 30
0.0
 10
-2.2389
 20
7.3785
 30
0.0
 10
-2.2389
 20
6.974
 30
0.0
 10
-2.2389
 20
6.974
 30
0.0
 10
-2.2389
 20
6.5713
 30
0.0
 10
-2.3132
 20
6.2054
 30
0.0
 10
-2.4609
 20
5.8752
 30
0.0
 10
-2.4609
 20
5.8752
 30
0.0
 10
-2.6096
 20
5.545
 30
0.0
 10
-2.8288
 20
5.2891
 30
0.0
 10
-3.1185
 20
5.1066
 30
0.0
 10
-3.1185
 20
5.1066
 30
0.0
 10
-3.4083
 20
4.9232
 30
0.0
 10
-3.7516
 20
4.8319
 30
0.0
 10
-4.1496
 20
4.8319
 30
0.0
  0
SPLINE
  5
90
330
1F
100
AcDbEntity
  8
Layer 1
 62
     1
100
AcDbSpline
210
0.0
220
0.0
230
1.0
 70
    11
 71
     3
 72
    36
 73
    32
 74
     0
 42
0.000000001
 43
0.0000000001
 40
0.0
 40
0.0
 40
0.0
 40
0.0
 40
0.1111111111111111
 40
0.1111111111111111
 40
0.1111111111111111
 40
0.1111111111111111
 40
0.2222222222222222
 40
0.2222222222222222
 40
0.2222222222222222
 40
0.2222222222222222
 40
0.3333333333333333
 40
0.3333333333333333
 40
0.3333333333333333
 40
0.3333333333333333
 40
0.4444444444444444
 40
0.4444444444444444
 40
0.4444444444444444
 40
0.4444444444444444
 40
0.5555555555555556
 40
0.5555555555555556
 40
0.5555555555555556
 40
0.5555555555555556
 40
0.6666666666666666
 40
0.6666666666666666
 40
0.6666666666666666
 40
0.6666666666666666
 40
0.7777777777777778
 40
0.7777777777777778
 40
0.7777777777777778
 40
0.7777777777777778
 40
1.0
 40
1.0
 40
1.0
 40
1.0
 10
-4.1496
 20
5.2665
 30
0.0
 10
-3.7375
 20
5.2665
 30
0.0
 10
-3.4177
 20
5.4199
 30
0.0
 10
-3.1928
 20
5.7265
 30
0.0
 10
-3.1928
 20
5.7265
 30
0.0
 10
-2.967
 20
6.0332
 30
0.0
 10
-2.8542
 20
6.4509
 30
0.0
 10
-2.8542
 20
6.9796
 30
0.0
 10
-2.8542
 20
6.9796
 30
0.0
 10
-2.8542
 20
7.5064
 30
0.0
 10
-2.968
 20
7.9222
 30
0.0
 10
-3.1956
 20
8.2261
 30
0.0
 10
-3.1956
 20
8.2261
 30
0.0
 10
-3.4224
 20
8.5299
 30
0.0
 10
-3.7403
 20
8.6814
 30
0.0
 10
-4.1496
 20
8.6814
 30
0.0
 10
-4.1496
 20
8.6814
 30
0.0
 10
-4.5588
 20
8.6814
 30
0.0
 10
-4.8767
 20
8.5299
 30
0.0
 10
-5.1035
 20
8.2261
 30
0.0
 10
-5.1035
 20
8.2261
 30
0.0
 10
-5.3311
 20
7.9222
 30
0.0
 10
-5.4449
 20
7.5064
 30
0.0
 10
-5.4449
 20
6.9796
 30
0.0
 10
-5.4449
 20
6.9796
 30
0.0
 10
-5.4449
 20
6.4509
 30
0.0
 10
-5.3321
 20
6.0332
 30
0.0
 10
-5.1063
 20
5.7265
 30
0.0
 10
-5.1063
 20
5.7265
 30
0.0
 10
-4.8814
 20
5.4199
 30
0.0
 10
-4.5616
 20
5.2665
 30
0.0
 10
-4.1496
 20
5.2665
 30
0.0
  0
SPLINE
  5
91
330
1F
100
AcDbEntity
  8
Layer 1
 62
     1
100
AcDbSpline
210
0.0
220
0.0
230
1.0
 70
    11
 71
     3
 72
    44
 73
    40
 74
     0
 42
0.000000001
 43
0.0000000001
 40
0.0
 40
0.0
 40
0.0
 40
0.0
 40
0.0909090909090909
 40
0.0909090909090909
 40
0.0909090909090909
 40
0.0909090909090909
 40
0.1818181818181818
 40
0.1818181818181818
 40
0.1818181818181818
 40
0.1818181818181818
 40
0.2727272727272727
 40
0.2727272727272727
 40
0.2727272727272727
 40
0.2727272727272727
 40
0.3636363636363636
 40
0.3636363636363636
 40
0.3636363636363636
 40
0.3636363636363636
 40
0.4545454545454545
 40
0.4545454545454545
 40
0.4545454545454545
 40
0.4545454545454545
 40
0.5454545454545454
 40
0.5454545454545454
 40
0.5454545454545454
 40
0.5454545454545454
 40
0.6363636363636364
 40
0.6363636363636364
 40
0.6363636363636364
 40
0.6363636363636364
 40
0.7272727272727273
 40
0.7272727272727273
 40
0.7272727272727273
 40
0.7272727272727273
 40
0.8181818181818182
 40
0.8181818181818182
 40
0.8181818181818182
 40
0.8181818181818182
 40
1.0
 40
1.0
 40
1.0
 40
1.0
 10
-1.4383
 20
4.9335
 30
0.0
 10
-1.4383
 20
4.9335
 30
0.0
 10
-1.4383
 20
9.0144
 30
0.0
 10
-1.4383
 20
9.0144
 30
0.0
 10
-1.4383
 20
9.0144
 30
0.0
 10
-1.4383
 20
9.0144
 30
0.0
 10
0.8872
 20
9.0144
 30
0.0
 10
0.8872
 20
9.0144
 30
0.0
 10
0.8872
 20
9.0144
 30
0.0
 10
0.8872
 20
9.0144
 30
0.0
 10
0.8872
 20
8.5798
 30
0.0
 10
0.8872
 20
8.5798
 30
0.0
 10
0.8872
 20
8.5798
 30
0.0
 10
0.8872
 20
8.5798
 30
0.0
 10
-0.8569
 20
8.5798
 30
0.0
 10
-0.8569
 20
8.5798
 30
0.0
 10
-0.8569
 20
8.5798
 30
0.0
 10
-0.8569
 20
8.5798
 30
0.0
 10
-0.8569
 20
7.2195
 30
0.0
 10
-0.8569
 20
7.2195
 30
0.0
 10
-0.8569
 20
7.2195
 30
0.0
 10
-0.8569
 20
7.2195
 30
0.0
 10
0.6106
 20
7.2195
 30
0.0
 10
0.6106
 20
7.2195
 30
0.0
 10
0.6106
 20
7.2195
 30
0.0
 10
0.6106
 20
7.2195
 30
0.0
 10
0.6106
 20
6.7849
 30
0.0
 10
0.6106
 20
6.7849
 30
0.0
 10
0.6106
 20
6.7849
 30
0.0
 10
0.6106
 20
6.7849
 30
0.0
 10
-0.8569
 20
6.7849
 30
0.0
 10
-0.8569
 20
6.7849
 30
0.0
 10
-0.8569
 20
6.7849
 30
0.0
 10
-0.8569
 20
6.7849
 30
0.0
 10
-0.8569
 20
4.9335
 30
0.0
 10
-0.8569
 20
4.9335
 30
0.0
 10
-0.8569
 20
4.9335
 30
0.0
 10
-0.8569
 20
4.9335
 30
0.0
 10
-1.4383
 20
4.9335
 30
0.0
 10
-1.4383
 20
4.9335
 30
0.0
  0
SPLINE
  5
92
330
1F
100
AcDbEntity
  8
Layer 1
 62
     1
100
AcDbSpline
210
0.0
220
0.0
230
1.0
 70
    11
 71
     3
 72
    36
 73
    32
 74
     0
 42
0.000000001
 43
0.0000000001
 40
0.0
 40
0.0
 40
0.0
 40
0.0
 40
0.1111111111111111
 40
0.1111111111111111
 40
0.1111111111111111
 40
0.1111111111111111
 40
0.2222222222222222
 40
0.2222222222222222
 40
0.2222222222222222
 40
0.2222222222222222
 40
0.3333333333333333
 40
0.3333333333333333
 40
0.3333333333333333
 40
0.3333333333333333
 40
0.4444444444444444
 40
0.4444444444444444
 40
0.4444444444444444
 40
0.4444444444444444
 40
0.5555555555555556
 40
0.5555555555555556
 40
0.5555555555555556
 40
0.5555555555555556
 40
0.6666666666666666
 40
0.6666666666666666
 40
0.6666666666666666
 40
0.6666666666666666
 40
0.7777777777777778
 40
0.7777777777777778
 40
0.7777777777777778
 40
0.7777777777777778
 40
1.0
 40
1.0
 40
1.0
 40
1.0
 10
2.5588
 20
4.9335
 30
0.0
 10
2.5588
 20
4.9335
 30
0.0
 10
2.5588
 20
8.5798
 30
0.0
 10
2.5588
 20
8.5798
 30
0.0
 10
2.5588
 20
8.5798
 30
0.0
 10
2.5588
 20
8.5798
 30
0.0
 10
1.1139
 20
8.5798
 30
0.0
 10
1.1139
 20
8.5798
 30
0.0
 10
1.1139
 20
8.5798
 30
0.0
 10
1.1139
 20
8.5798
 30
0.0
 10
1.1139
 20
9.0144
 30
0.0
 10
1.1139
 20
9.0144
 30
0.0
 10
1.1139
 20
9.0144
 30
0.0
 10
1.1139
 20
9.0144
 30
0.0
 10
4.5852
 20
9.0144
 30
0.0
 10
4.5852
 20
9.0144
 30
0.0
 10
4.5852
 20
9.0144
 30
0.0
 10
4.5852
 20
9.0144
 30
0.0
 10
4.5852
 20
8.5798
 30
0.0
 10
4.5852
 20
8.5798
 30
0.0
 10
4.5852
 20
8.5798
 30
0.0
 10
4.5852
 20
8.5798
 30
0.0
 10
3.1402
 20
8.5798
 30
0.0
 10
3.1402
 20
8.5798
 30
0.0
 10
3.1402
 20
8.5798
 30
0.0
 10
3.1402
 20
8.5798
 30
0.0
 10
3.1402
 20
4.9335
 30
0.0
 10
3.1402
 20
4.9335
 30
0.0
 10
3.1402
 20
4.9335
 30
0.0
 10
3.1402
 20
4.9335
 30
0.0
 10
2.5588
 20
4.9335
 30
0.0
 10
2.5588
 20
4.9335
 30
0.0
  0
SPLINE
  5
93
330
1F
100
AcDbEntity
  8
Layer 1
 62
     1
100
AcDbSpline
210
0.0
220
0.0
230
1.0
 70
    11
 71
     3
 72
    48
 73
    44
 74
     0
 42
0.000000001
 43
0.0000000001
 40
0.0
 40
0.0
 40
0.0
 40
0.0
 40
0.0833333333333333
 40
0.0833333333333333
 40
0.0833333333333333
 40
0.0833333333333333
 40
0.1666666666666667
 40
0.1666666666666667
 40
0.1666666666666667
 40
0.1666666666666667
 40
0.25
 40
0.25
 40
0.25
 40
0.25
 40
0.3333333333333333
 40
0.3333333333333333
 40
0.3333333333333333
 40
0.3333333333333333
 40
0.4166666666666667
 40
0.4166666666666667
 40
0.4166666666666667
 40
0.4166666666666667
 40
0.5
 40
0.5
 40
0.5
 40
0.5
 40
0.5833333333333334
 40
0.5833333333333334
 40
0.5833333333333334
 40
0.5833333333333334
 40
0.6666666666666666
 40
0.6666666666666666
 40
0.6666666666666666
 40
0.6666666666666666
 40
0.75
 40
0.75
 40
0.75
 40
0.75
 40
0.8333333333333334
 40
0.8333333333333334
 40
0.8333333333333334
 40
0.8333333333333334
 40
1.0
 40
1.0
 40
1.0
 40
1.0
 10
22.2174
 20
11.3606
 30
0.0
 10
22.2174
 20
11.3606
 30
0.0
 10
22.2174
 20
15.4415
 30
0.0
 10
22.2174
 20
15.4415
 30
0.0
 10
22.2174
 20
15.4415
 30
0.0
 10
22.2174
 20
15.4415
 30
0.0
 10
23.3086
 20
15.4415
 30
0.0
 10
23.3086
 20
15.4415
 30
0.0
 10
23.3086
 20
15.4415
 30
0.0
 10
23.6962
 20
15.4415
 30
0.0
 10
23.9747
 20
15.4029
 30
0.0
 10
24.1431
 20
15.3258
 30
0.0
 10
24.1431
 20
15.3258
 30
0.0
 10
24.3124
 20
15.2487
 30
0.0
 10
24.4413
 20
15.1301
 30
0.0
 10
24.5316
 20
14.9711
 30
0.0
 10
24.5316
 20
14.9711
 30
0.0
 10
24.6219
 20
14.8112
 30
0.0
 10
24.6671
 20
14.6118
 30
0.0
 10
24.6671
 20
14.3738
 30
0.0
 10
24.6671
 20
14.3738
 30
0.0
 10
24.6671
 20
14.0944
 30
0.0
 10
24.6078
 20
13.8507
 30
0.0
 10
24.4893
 20
13.6409
 30
0.0
 10
24.4893
 20
13.6409
 30
0.0
 10
24.3698
 20
13.4321
 30
0.0
 10
24.1788
 20
13.2703
 30
0.0
 10
23.9163
 20
13.1565
 30
0.0
 10
23.9163
 20
13.1565
 30
0.0
 10
23.6539
 20
13.0426
 30
0.0
 10
23.3641
 20
12.9862
 30
0.0
 10
23.0481
 20
12.9862
 30
0.0
 10
23.0481
 20
12.9862
 30
0.0
 10
23.0481
 20
12.9862
 30
0.0
 10
22.7988
 20
12.9862
 30
0.0
 10
22.7988
 20
12.9862
 30
0.0
 10
22.7988
 20
12.9862
 30
0.0
 10
22.7988
 20
12.9862
 30
0.0
 10
22.7988
 20
11.3606
 30
0.0
 10
22.7988
 20
11.3606
 30
0.0
 10
22.7988
 20
11.3606
 30
0.0
 10
22.7988
 20
11.3606
 30
0.0
 10
22.2174
 20
11.3606
 30
0.0
 10
22.2174
 20
11.3606
 30
0.0
  0
SPLINE
  5
94
330
1F
100
AcDbEntity
  8
Layer 1
 62
     1
100
AcDbSpline
210
0.0
220
0.0
230
1.0
 70
    11
 71
     3
 72
    36
 73
    32
 74
     0
 42
0.000000001
 43
0.0000000001
 40
0.0
 40
0.0
 40
0.0
 40
0.0
 40
0.1111111111111111
 40
0.1111111111111111
 40
0.1111111111111111
 40
0.1111111111111111
 40
0.2222222222222222
 40
0.2222222222222222
 40
0.2222222222222222
 40
0.2222222222222222
 40
0.3333333333333333
 40
0.3333333333333333
 40
0.3333333333333333
 40
0.3333333333333333
 40
0.4444444444444444
 40
0.4444444444444444
 40
0.4444444444444444
 40
0.4444444444444444
 40
0.5555555555555556
 40
0.5555555555555556
 40
0.5555555555555556
 40
0.5555555555555556
 40
0.6666666666666666
 40
0.6666666666666666
 40
0.6666666666666666
 40
0.6666666666666666
 40
0.7777777777777778
 40
0.7777777777777778
 40
0.7777777777777778
 40
0.7777777777777778
 40
1.0
 40
1.0
 40
1.0
 40
1.0
 10
22.7988
 20
13.4208
 30
0.0
 10
22.7988
 20
13.4208
 30
0.0
 10
23.0227
 20
13.4208
 30
0.0
 10
23.0227
 20
13.4208
 30
0.0
 10
23.0227
 20
13.4208
 30
0.0
 10
23.3895
 20
13.4208
 30
0.0
 10
23.6529
 20
13.5083
 30
0.0
 10
23.8119
 20
13.6823
 30
0.0
 10
23.8119
 20
13.6823
 30
0.0
 10
23.9719
 20
13.8564
 30
0.0
 10
24.0518
 20
14.0727
 30
0.0
 10
24.0518
 20
14.3296
 30
0.0
 10
24.0518
 20
14.3296
 30
0.0
 10
24.0518
 20
14.4688
 30
0.0
 10
24.0264
 20
14.5873
 30
0.0
 10
23.9756
 20
14.6833
 30
0.0
 10
23.9756
 20
14.6833
 30
0.0
 10
23.9248
 20
14.7802
 30
0.0
 10
23.843
 20
14.8573
 30
0.0
 10
23.731
 20
14.9175
 30
0.0
 10
23.731
 20
14.9175
 30
0.0
 10
23.6181
 20
14.9768
 30
0.0
 10
23.4206
 20
15.0069
 30
0.0
 10
23.1384
 20
15.0069
 30
0.0
 10
23.1384
 20
15.0069
 30
0.0
 10
23.1384
 20
15.0069
 30
0.0
 10
22.7988
 20
15.0069
 30
0.0
 10
22.7988
 20
15.0069
 30
0.0
 10
22.7988
 20
15.0069
 30
0.0
 10
22.7988
 20
15.0069
 30
0.0
 10
22.7988
 20
13.4208
 30
0.0
 10
22.7988
 20
13.4208
 30
0.0
  0
SPLINE
  5
95
330
1F
100
AcDbEntity
  8
Layer 1
 62
     1
100
AcDbSpline
210
0.0
220
0.0
230
1.0
 70
    11
 71
     3
 72
    52
 73
    48
 74
     0
 42
0.000000001
 43
0.0000000001
 40
0.0
 40
0.0
 40
0.0
 40
0.0
 40
0.0769230769230769
 40
0.0769230769230769
 40
0.0769230769230769
 40
0.0769230769230769
 40
0.1538461538461539
 40
0.1538461538461539
 40
0.1538461538461539
 40
0.1538461538461539
 40
0.2307692307692308
 40
0.2307692307692308
 40
0.2307692307692308
 40
0.2307692307692308
 40
0.3076923076923077
 40
0.3076923076923077
 40
0.3076923076923077
 40
0.3076923076923077
 40
0.3846153846153846
 40
0.3846153846153846
 40
0.3846153846153846
 40
0.3846153846153846
 40
0.4615384615384616
 40
0.4615384615384616
 40
0.4615384615384616
 40
0.4615384615384616
 40
0.5384615384615384
 40
0.5384615384615384
 40
0.5384615384615384
 40
0.5384615384615384
 40
0.6153846153846154
 40
0.6153846153846154
 40
0.6153846153846154
 40
0.6153846153846154
 40
0.6923076923076923
 40
0.6923076923076923
 40
0.6923076923076923
 40
0.6923076923076923
 40
0.7692307692307693
 40
0.7692307692307693
 40
0.7692307692307693
 40
0.7692307692307693
 40
0.8461538461538461
 40
0.8461538461538461
 40
0.8461538461538461
 40
0.8461538461538461
 40
1.0
 40
1.0
 40
1.0
 40
1.0
 10
25.3369
 20
11.3606
 30
0.0
 10
25.3369
 20
11.3606
 30
0.0
 10
25.3369
 20
15.4415
 30
0.0
 10
25.3369
 20
15.4415
 30
0.0
 10
25.3369
 20
15.4415
 30
0.0
 10
25.3369
 20
15.4415
 30
0.0
 10
27.6285
 20
15.4415
 30
0.0
 10
27.6285
 20
15.4415
 30
0.0
 10
27.6285
 20
15.4415
 30
0.0
 10
27.6285
 20
15.4415
 30
0.0
 10
27.6285
 20
15.0069
 30
0.0
 10
27.6285
 20
15.0069
 30
0.0
 10
27.6285
 20
15.0069
 30
0.0
 10
27.6285
 20
15.0069
 30
0.0
 10
25.9183
 20
15.0069
 30
0.0
 10
25.9183
 20
15.0069
 30
0.0
 10
25.9183
 20
15.0069
 30
0.0
 10
25.9183
 20
15.0069
 30
0.0
 10
25.9183
 20
13.7087
 30
0.0
 10
25.9183
 20
13.7087
 30
0.0
 10
25.9183
 20
13.7087
 30
0.0
 10
25.9183
 20
13.7087
 30
0.0
 10
27.3519
 20
13.7087
 30
0.0
 10
27.3519
 20
13.7087
 30
0.0
 10
27.3519
 20
13.7087
 30
0.0
 10
27.3519
 20
13.7087
 30
0.0
 10
27.3519
 20
13.2741
 30
0.0
 10
27.3519
 20
13.2741
 30
0.0
 10
27.3519
 20
13.2741
 30
0.0
 10
27.3519
 20
13.2741
 30
0.0
 10
25.9183
 20
13.2741
 30
0.0
 10
25.9183
 20
13.2741
 30
0.0
 10
25.9183
 20
13.2741
 30
0.0
 10
25.9183
 20
13.2741
 30
0.0
 10
25.9183
 20
11.7952
 30
0.0
 10
25.9183
 20
11.7952
 30
0.0
 10
25.9183
 20
11.7952
 30
0.0
 10
25.9183
 20
11.7952
 30
0.0
 10
27.747
 20
11.7952
 30
0.0
 10
27.747
 20
11.7952
 30
0.0
 10
27.747
 20
11.7952
 30
0.0
 10
27.747
 20
11.7952
 30
0.0
 10
27.747
 20
11.3606
 30
0.0
 10
27.747
 20
11.3606
 30
0.0
 10
27.747
 20
11.3606
 30
0.0
 10
27.747
 20
11.3606
 30
0.0
 10
25.3369
 20
11.3606
 30
0.0
 10
25.3369
 20
11.3606
 30
0.0
  0
SPLINE
  5
96
330
1F
100
AcDbEntity
  8
Layer 1
 62
     1
100
AcDbSpline
210
0.0
220
0.0
230
1.0
 70
    11
 71
     3
 72
    56
 73
    52
 74
     0
 42
0.000000001
 43
0.0000000001
 40
0.0
 40
0.0
 40
0.0
 40
0.0
 40
0.0714285714285714
 40
0.0714285714285714
 40
0.0714285714285714
 40
0.0714285714285714
 40
0.1428571428571428
 40
0.1428571428571428
 40
0.1428571428571428
 40
0.1428571428571428
 40
0.2142857142857143
 40
0.2142857142857143
 40
0.2142857142857143
 40
0.2142857142857143
 40
0.2857142857142857
 40
0.2857142857142857
 40
0.2857142857142857
 40
0.2857142857142857
 40
0.3571428571428572
 40
0.3571428571428572
 40
0.3571428571428572
 40
0.3571428571428572
 40
0.4285714285714285
 40
0.4285714285714285
 40
0.4285714285714285
 40
0.4285714285714285
 40
0.5
 40
0.5
 40
0.5
 40
0.5
 40
0.5714285714285714
 40
0.5714285714285714
 40
0.5714285714285714
 40
0.5714285714285714
 40
0.6428571428571429
 40
0.6428571428571429
 40
0.6428571428571429
 40
0.6428571428571429
 40
0.7142857142857143
 40
0.7142857142857143
 40
0.7142857142857143
 40
0.7142857142857143
 40
0.7857142857142857
 40
0.7857142857142857
 40
0.7857142857142857
 40
0.7857142857142857
 40
0.8571428571428571
 40
0.8571428571428571
 40
0.8571428571428571
 40
0.8571428571428571
 40
1.0
 40
1.0
 40
1.0
 40
1.0
 10
28.3962
 20
11.3606
 30
0.0
 10
28.3962
 20
11.3606
 30
0.0
 10
28.3962
 20
15.4415
 30
0.0
 10
28.3962
 20
15.4415
 30
0.0
 10
28.3962
 20
15.4415
 30
0.0
 10
28.3962
 20
15.4415
 30
0.0
 10
29.6304
 20
15.4415
 30
0.0
 10
29.6304
 20
15.4415
 30
0.0
 10
29.6304
 20
15.4415
 30
0.0
 10
30.0876
 20
15.4415
 30
0.0
 10
30.4037
 20
15.339
 30
0.0
 10
30.5787
 20
15.1339
 30
0.0
 10
30.5787
 20
15.1339
 30
0.0
 10
30.7527
 20
14.9288
 30
0.0
 10
30.8402
 20
14.6936
 30
0.0
 10
30.8402
 20
14.4283
 30
0.0
 10
30.8402
 20
14.4283
 30
0.0
 10
30.8402
 20
14.2731
 30
0.0
 10
30.8092
 20
14.1207
 30
0.0
 10
30.748
 20
13.9693
 30
0.0
 10
30.748
 20
13.9693
 30
0.0
 10
30.6869
 20
13.8187
 30
0.0
 10
30.6003
 20
13.6842
 30
0.0
 10
30.4865
 20
13.5666
 30
0.0
 10
30.4865
 20
13.5666
 30
0.0
 10
30.3736
 20
13.449
 30
0.0
 10
30.2193
 20
13.3493
 30
0.0
 10
30.0237
 20
13.2684
 30
0.0
 10
30.0237
 20
13.2684
 30
0.0
 10
30.0237
 20
13.2684
 30
0.0
 10
31.3764
 20
11.3606
 30
0.0
 10
31.3764
 20
11.3606
 30
0.0
 10
31.3764
 20
11.3606
 30
0.0
 10
31.3764
 20
11.3606
 30
0.0
 10
30.6681
 20
11.3606
 30
0.0
 10
30.6681
 20
11.3606
 30
0.0
 10
30.6681
 20
11.3606
 30
0.0
 10
30.6681
 20
11.3606
 30
0.0
 10
29.5157
 20
13.0821
 30
0.0
 10
29.5157
 20
13.0821
 30
0.0
 10
29.5157
 20
13.0821
 30
0.0
 10
29.5157
 20
13.0821
 30
0.0
 10
28.9776
 20
13.0821
 30
0.0
 10
28.9776
 20
13.0821
 30
0.0
 10
28.9776
 20
13.0821
 30
0.0
 10
28.9776
 20
13.0821
 30
0.0
 10
28.9776
 20
11.3606
 30
0.0
 10
28.9776
 20
11.3606
 30
0.0
 10
28.9776
 20
11.3606
 30
0.0
 10
28.9776
 20
11.3606
 30
0.0
 10
28.3962
 20
11.3606
 30
0.0
 10
28.3962
 20
11.3606
 30
0.0
  0
SPLINE
  5
97
330
1F
100
AcDbEntity
  8
Layer 1
 62
     1
100
AcDbSpline
210
0.0
220
0.0
230
1.0
 70
    11
 71
     3
 72
    36
 73
    32
 74
     0
 42
0.000000001
 43
0.0000000001
 40
0.0
 40
0.0
 40
0.0
 40
0.0
 40
0.1111111111111111
 40
0.1111111111111111
 40
0.1111111111111111
 40
0.1111111111111111
 40
0.2222222222222222
 40
0.2222222222222222
 40
0.2222222222222222
 40
0.2222222222222222
 40
0.3333333333333333
 40
0.3333333333333333
 40
0.3333333333333333
 40
0.3333333333333333
 40
0.4444444444444444
 40
0.4444444444444444
 40
0.4444444444444444
 40
0.4444444444444444
 40
0.5555555555555556
 40
0.5555555555555556
 40
0.5555555555555556
 40
0.5555555555555556
 40
0.6666666666666666
 40
0.6666666666666666
 40
0.6666666666666666
 40
0.6666666666666666
 40
0.7777777777777778
 40
0.7777777777777778
 40
0.7777777777777778
 40
0.7777777777777778
 40
1.0
 40
1.0
 40
1.0
 40
1.0
 10
28.9776
 20
13.5168
 30
0.0
 10
28.9776
 20
13.5168
 30
0.0
 10
29.1638
 20
13.5168
 30
0.0
 10
29.1638
 20
13.5168
 30
0.0
 10
29.1638
 20
13.5168
 30
0.0
 10
29.5909
 20
13.5168
 30
0.0
 10
29.8778
 20
13.6061
 30
0.0
 10
30.0255
 20
13.7849
 30
0.0
 10
30.0255
 20
13.7849
 30
0.0
 10
30.1732
 20
13.9627
 30
0.0
 10
30.2475
 20
14.1593
 30
0.0
 10
30.2475
 20
14.3719
 30
0.0
 10
30.2475
 20
14.3719
 30
0.0
 10
30.2475
 20
14.4989
 30
0.0
 10
30.2193
 20
14.6099
 30
0.0
 10
30.1638
 20
14.7049
 30
0.0
 10
30.1638
 20
14.7049
 30
0.0
 10
30.1083
 20
14.799
 30
0.0
 10
30.0218
 20
14.8733
 30
0.0
 10
29.9042
 20
14.9269
 30
0.0
 10
29.9042
 20
14.9269
 30
0.0
 10
29.7866
 20
14.9805
 30
0.0
 10
29.5975
 20
15.0069
 30
0.0
 10
29.3388
 20
15.0069
 30
0.0
 10
29.3388
 20
15.0069
 30
0.0
 10
29.3388
 20
15.0069
 30
0.0
 10
28.9776
 20
15.0069
 30
0.0
 10
28.9776
 20
15.0069
 30
0.0
 10
28.9776
 20
15.0069
 30
0.0
 10
28.9776
 20
15.0069
 30
0.0
 10
28.9776
 20
13.5168
 30
0.0
 10
28.9776
 20
13.5168
 30
0.0
  0
SPLINE
  5
98
330
1F
100
AcDbEntity
  8
Layer 1
 62
     1
100
AcDbSpline
210
0.0
220
0.0
230
1.0
 70
    11
 71
     3
 72
    80
 73
    76
 74
     0
 42
0.000000001
 43
0.0000000001
 40
0.0
 40
0.0
 40
0.0
 40
0.0
 40
0.05
 40
0.05
 40
0.05
 40
0.05
 40
0.1
 40
0.1
 40
0.1
 40
0.1
 40
0.15
 40
0.15
 40
0.15
 40
0.15
 40
0.2
 40
0.2
 40
0.2
 40
0.2
 40
0.25
 40
0.25
 40
0.25
 40
0.25
 40
0.3
 40
0.3
 40
0.3
 40
0.3
 40
0.35
 40
0.35
 40
0.35
 40
0.35
 40
0.4
 40
0.4
 40
0.4
 40
0.4
 40
0.45
 40
0.45
 40
0.45
 40
0.45
 40
0.5
 40
0.5
 40
0.5
 40
0.5
 40
0.55
 40
0.55
 40
0.55
 40
0.55
 40
0.6
 40
0.6
 40
0.6
 40
0.6
 40
0.65
 40
0.65
 40
0.65
 40
0.65
 40
0.7
 40
0.7
 40
0.7
 40
0.7
 40
0.75
 40
0.75
 40
0.75
 40
0.75
 40
0.8
 40
0.8
 40
0.8
 40
0.8
 40
0.85
 40
0.85
 40
0.85
 40
0.85
 40
0.9
 40
0.9
 40
0.9
 40
0.9
 40
1.0
 40
1.0
 40
1.0
 40
1.0
 10
35.0358
 20
11.5694
 30
0.0
 10
34.8684
 20
11.4838
 30
0.0
 10
34.7188
 20
11.4199
 30
0.0
 10
34.588
 20
11.3785
 30
0.0
 10
34.588
 20
11.3785
 30
0.0
 10
34.4563
 20
11.3371
 30
0.0
 10
34.3199
 20
11.307
 30
0.0
 10
34.1779
 20
11.2882
 30
0.0
 10
34.1779
 20
11.2882
 30
0.0
 10
34.0368
 20
11.2684
 30
0.0
 10
33.8825
 20
11.259
 30
0.0
 10
33.7169
 20
11.259
 30
0.0
 10
33.7169
 20
11.259
 30
0.0
 10
33.0293
 20
11.259
 30
0.0
 10
32.526
 20
11.4622
 30
0.0
 10
32.2071
 20
11.8686
 30
0.0
 10
32.2071
 20
11.8686
 30
0.0
 10
31.8881
 20
12.2741
 30
0.0
 10
31.7282
 20
12.7849
 30
0.0
 10
31.7282
 20
13.3982
 30
0.0
 10
31.7282
 20
13.3982
 30
0.0
 10
31.7282
 20
14.0248
 30
0.0
 10
31.8938
 20
14.5393
 30
0.0
 10
32.2249
 20
14.941
 30
0.0
 10
32.2249
 20
14.941
 30
0.0
 10
32.5561
 20
15.3427
 30
0.0
 10
33.0631
 20
15.5431
 30
0.0
 10
33.748
 20
15.5431
 30
0.0
 10
33.748
 20
15.5431
 30
0.0
 10
34.112
 20
15.5431
 30
0.0
 10
34.5391
 20
15.4829
 30
0.0
 10
35.0302
 20
15.3625
 30
0.0
 10
35.0302
 20
15.3625
 30
0.0
 10
35.0302
 20
15.3625
 30
0.0
 10
35.0302
 20
14.8206
 30
0.0
 10
35.0302
 20
14.8206
 30
0.0
 10
35.0302
 20
14.8206
 30
0.0
 10
34.6182
 20
14.9617
 30
0.0
 10
34.335
 20
15.0445
 30
0.0
 10
34.1798
 20
15.0699
 30
0.0
 10
34.1798
 20
15.0699
 30
0.0
 10
34.0236
 20
15.0953
 30
0.0
 10
33.8759
 20
15.1085
 30
0.0
 10
33.7367
 20
15.1085
 30
0.0
 10
33.7367
 20
15.1085
 30
0.0
 10
33.2475
 20
15.1085
 30
0.0
 10
32.8928
 20
14.9429
 30
0.0
 10
32.6727
 20
14.6108
 30
0.0
 10
32.6727
 20
14.6108
 30
0.0
 10
32.4535
 20
14.2797
 30
0.0
 10
32.3435
 20
13.8733
 30
0.0
 10
32.3435
 20
13.3916
 30
0.0
 10
32.3435
 20
13.3916
 30
0.0
 10
32.3435
 20
12.8902
 30
0.0
 10
32.4695
 20
12.4848
 30
0.0
 10
32.7226
 20
12.1753
 30
0.0
 10
32.7226
 20
12.1753
 30
0.0
 10
32.9756
 20
11.8658
 30
0.0
 10
33.3341
 20
11.7106
 30
0.0
 10
33.7969
 20
11.7106
 30
0.0
 10
33.7969
 20
11.7106
 30
0.0
 10
33.9258
 20
11.7106
 30
0.0
 10
34.0547
 20
11.7218
 30
0.0
 10
34.1817
 20
11.7454
 30
0.0
 10
34.1817
 20
11.7454
 30
0.0
 10
34.3096
 20
11.7679
 30
0.0
 10
34.4375
 20
11.8018
 30
0.0
 10
34.5645
 20
11.847
 30
0.0
 10
34.5645
 20
11.847
 30
0.0
 10
34.6906
 20
11.8921
 30
0.0
 10
34.8486
 20
11.9655
 30
0.0
 10
35.0358
 20
12.0662
 30
0.0
 10
35.0358
 20
12.0662
 30
0.0
 10
35.0358
 20
12.0662
 30
0.0
 10
35.0358
 20
11.5694
 30
0.0
 10
35.0358
 20
11.5694
 30
0.0
  0
SPLINE
  5
99
330
1F
100
AcDbEntity
  8
Layer 1
 62
     1
100
AcDbSpline
210
0.0
220
0.0
230
1.0
 70
    11
 71
     3
 72
   120
 73
   116
 74
     0
 42
0.000000001
 43
0.0000000001
 40
0.0
 40
0.0
 40
0.0
 40
0.0
 40
0.0333333333333333
 40
0.0333333333333333
 40
0.0333333333333333
 40
0.0333333333333333
 40
0.0666666666666667
 40
0.0666666666666667
 40
0.0666666666666667
 40
0.0666666666666667
 40
0.1
 40
0.1
 40
0.1
 40
0.1
 40
0.1333333333333333
 40
0.1333333333333333
 40
0.1333333333333333
 40
0.1333333333333333
 40
0.1666666666666667
 40
0.1666666666666667
 40
0.1666666666666667
 40
0.1666666666666667
 40
0.2
 40
0.2
 40
0.2
 40
0.2
 40
0.2333333333333333
 40
0.2333333333333333
 40
0.2333333333333333
 40
0.2333333333333333
 40
0.2666666666666667
 40
0.2666666666666667
 40
0.2666666666666667
 40
0.2666666666666667
 40
0.3
 40
0.3
 40
0.3
 40
0.3
 40
0.3333333333333333
 40
0.3333333333333333
 40
0.3333333333333333
 40
0.3333333333333333
 40
0.3666666666666666
 40
0.3666666666666666
 40
0.3666666666666666
 40
0.3666666666666666
 40
0.4
 40
0.4
 40
0.4
 40
0.4
 40
0.4333333333333333
 40
0.4333333333333333
 40
0.4333333333333333
 40
0.4333333333333333
 40
0.4666666666666667
 40
0.4666666666666667
 40
0.4666666666666667
 40
0.4666666666666667
 40
0.5
 40
0.5
 40
0.5
 40
0.5
 40
0.5333333333333333
 40
0.5333333333333333
 40
0.5333333333333333
 40
0.5333333333333333
 40
0.5666666666666667
 40
0.5666666666666667
 40
0.5666666666666667
 40
0.5666666666666667
 40
0.6
 40
0.6
 40
0.6
 40
0.6
 40
0.6333333333333333
 40
0.6333333333333333
 40
0.6333333333333333
 40
0.6333333333333333
 40
0.6666666666666666
 40
0.6666666666666666
 40
0.6666666666666666
 40
0.6666666666666666
 40
0.7
 40
0.7
 40
0.7
 40
0.7
 40
0.7333333333333333
 40
0.7333333333333333
 40
0.7333333333333333
 40
0.7333333333333333
 40
0.7666666666666667
 40
0.7666666666666667
 40
0.7666666666666667
 40
0.7666666666666667
 40
0.8
 40
0.8
 40
0.8
 40
0.8
 40
0.8333333333333334
 40
0.8333333333333334
 40
0.8333333333333334
 40
0.8333333333333334
 40
0.8666666666666667
 40
0.8666666666666667
 40
0.8666666666666667
 40
0.8666666666666667
 40
0.9
 40
0.9
 40
0.9
 40
0.9
 40
0.9333333333333333
 40
0.9333333333333333
 40
0.9333333333333333
 40
0.9333333333333333
 40
1.0
 40
1.0
 40
1.0
 40
1.0
 10
21.1755
 20
5.0125
 30
0.0
 10
21.1755
 20
5.0125
 30
0.0
 10
21.1755
 20
5.5883
 30
0.0
 10
21.1755
 20
5.5883
 30
0.0
 10
21.1755
 20
5.5883
 30
0.0
 10
21.5048
 20
5.4368
 30
0.0
 10
21.7447
 20
5.3455
 30
0.0
 10
21.8961
 20
5.3136
 30
0.0
 10
21.8961
 20
5.3136
 30
0.0
 10
22.0485
 20
5.2825
 30
0.0
 10
22.1887
 20
5.2665
 30
0.0
 10
22.3176
 20
5.2665
 30
0.0
 10
22.3176
 20
5.2665
 30
0.0
 10
22.5528
 20
5.2665
 30
0.0
 10
22.7381
 20
5.3305
 30
0.0
 10
22.8735
 20
5.4575
 30
0.0
 10
22.8735
 20
5.4575
 30
0.0
 10
23.01
 20
5.5854
 30
0.0
 10
23.0777
 20
5.7378
 30
0.0
 10
23.0777
 20
5.9156
 30
0.0
 10
23.0777
 20
5.9156
 30
0.0
 10
23.0777
 20
6.0502
 30
0.0
 10
23.0419
 20
6.1734
 30
0.0
 10
22.9714
 20
6.2872
 30
0.0
 10
22.9714
 20
6.2872
 30
0.0
 10
22.898
 20
6.3992
 30
0.0
 10
22.7193
 20
6.5356
 30
0.0
 10
22.4333
 20
6.6974
 30
0.0
 10
22.4333
 20
6.6974
 30
0.0
 10
22.4333
 20
6.6974
 30
0.0
 10
22.1501
 20
6.8601
 30
0.0
 10
22.1501
 20
6.8601
 30
0.0
 10
22.1501
 20
6.8601
 30
0.0
 10
21.7738
 20
7.0737
 30
0.0
 10
21.5208
 20
7.2684
 30
0.0
 10
21.3919
 20
7.4443
 30
0.0
 10
21.3919
 20
7.4443
 30
0.0
 10
21.263
 20
7.6212
 30
0.0
 10
21.1981
 20
7.8168
 30
0.0
 10
21.1981
 20
8.0323
 30
0.0
 10
21.1981
 20
8.0323
 30
0.0
 10
21.1981
 20
8.2251
 30
0.0
 10
21.2498
 20
8.4067
 30
0.0
 10
21.3524
 20
8.5751
 30
0.0
 10
21.3524
 20
8.5751
 30
0.0
 10
21.4549
 20
8.7444
 30
0.0
 10
21.5932
 20
8.8771
 30
0.0
 10
21.7663
 20
8.973
 30
0.0
 10
21.7663
 20
8.973
 30
0.0
 10
21.9385
 20
9.068
 30
0.0
 10
22.1567
 20
9.116
 30
0.0
 10
22.4201
 20
9.116
 30
0.0
 10
22.4201
 20
9.116
 30
0.0
 10
22.7362
 20
9.116
 30
0.0
 10
23.0702
 20
9.0633
 30
0.0
 10
23.422
 20
8.958
 30
0.0
 10
23.422
 20
8.958
 30
0.0
 10
23.422
 20
8.958
 30
0.0
 10
23.422
 20
8.4274
 30
0.0
 10
23.422
 20
8.4274
 30
0.0
 10
23.422
 20
8.4274
 30
0.0
 10
23.1153
 20
8.5469
 30
0.0
 10
22.9055
 20
8.6193
 30
0.0
 10
22.7917
 20
8.6438
 30
0.0
 10
22.7917
 20
8.6438
 30
0.0
 10
22.6769
 20
8.6692
 30
0.0
 10
22.5631
 20
8.6814
 30
0.0
 10
22.4502
 20
8.6814
 30
0.0
 10
22.4502
 20
8.6814
 30
0.0
 10
22.2122
 20
8.6814
 30
0.0
 10
22.0363
 20
8.6202
 30
0.0
 10
21.9225
 20
8.497
 30
0.0
 10
21.9225
 20
8.497
 30
0.0
 10
21.8086
 20
8.3738
 30
0.0
 10
21.7512
 20
8.2486
 30
0.0
 10
21.7512
 20
8.1198
 30
0.0
 10
21.7512
 20
8.1198
 30
0.0
 10
21.7512
 20
8.0323
 30
0.0
 10
21.7785
 20
7.9429
 30
0.0
 10
21.8322
 20
7.8517
 30
0.0
 10
21.8322
 20
7.8517
 30
0.0
 10
21.8858
 20
7.7613
 30
0.0
 10
21.9582
 20
7.6833
 30
0.0
 10
22.0495
 20
7.6184
 30
0.0
 10
22.0495
 20
7.6184
 30
0.0
 10
22.1407
 20
7.5525
 30
0.0
 10
22.2658
 20
7.4754
 30
0.0
 10
22.4248
 20
7.386
 30
0.0
 10
22.4248
 20
7.386
 30
0.0
 10
22.4248
 20
7.386
 30
0.0
 10
22.7183
 20
7.2204
 30
0.0
 10
22.7183
 20
7.2204
 30
0.0
 10
22.7183
 20
7.2204
 30
0.0
 10
23.0984
 20
7.005
 30
0.0
 10
23.3524
 20
6.8084
 30
0.0
 10
23.4794
 20
6.6296
 30
0.0
 10
23.4794
 20
6.6296
 30
0.0
 10
23.6064
 20
6.45
 30
0.0
 10
23.6703
 20
6.243
 30
0.0
 10
23.6703
 20
6.0097
 30
0.0
 10
23.6703
 20
6.0097
 30
0.0
 10
23.6703
 20
5.6917
 30
0.0
 10
23.549
 20
5.4152
 30
0.0
 10
23.3063
 20
5.1819
 30
0.0
 10
23.3063
 20
5.1819
 30
0.0
 10
23.0636
 20
4.9486
 30
0.0
 10
22.7061
 20
4.8319
 30
0.0
 10
22.2329
 20
4.8319
 30
0.0
 10
22.2329
 20
4.8319
 30
0.0
 10
22.0871
 20
4.8319
 30
0.0
 10
21.946
 20
4.8413
 30
0.0
 10
21.8096
 20
4.8611
 30
0.0
 10
21.8096
 20
4.8611
 30
0.0
 10
21.6732
 20
4.8808
 30
0.0
 10
21.4615
 20
4.9307
 30
0.0
 10
21.1755
 20
5.0125
 30
0.0
  0
SPLINE
  5
9A
330
1F
100
AcDbEntity
  8
Layer 1
 62
     1
100
AcDbSpline
210
0.0
220
0.0
230
1.0
 70
    11
 71
     3
 72
    28
 73
    24
 74
     0
 42
0.000000001
 43
0.0000000001
 40
0.0
 40
0.0
 40
0.0
 40
0.0
 40
0.1428571428571428
 40
0.1428571428571428
 40
0.1428571428571428
 40
0.1428571428571428
 40
0.2857142857142857
 40
0.2857142857142857
 40
0.2857142857142857
 40
0.2857142857142857
 40
0.4285714285714285
 40
0.4285714285714285
 40
0.4285714285714285
 40
0.4285714285714285
 40
0.5714285714285714
 40
0.5714285714285714
 40
0.5714285714285714
 40
0.5714285714285714
 40
0.7142857142857143
 40
0.7142857142857143
 40
0.7142857142857143
 40
0.7142857142857143
 40
1.0
 40
1.0
 40
1.0
 40
1.0
 10
24.4521
 20
4.9335
 30
0.0
 10
24.4521
 20
4.9335
 30
0.0
 10
24.4521
 20
9.0144
 30
0.0
 10
24.4521
 20
9.0144
 30
0.0
 10
24.4521
 20
9.0144
 30
0.0
 10
24.4521
 20
9.0144
 30
0.0
 10
25.0335
 20
9.0144
 30
0.0
 10
25.0335
 20
9.0144
 30
0.0
 10
25.0335
 20
9.0144
 30
0.0
 10
25.0335
 20
9.0144
 30
0.0
 10
25.0335
 20
5.3681
 30
0.0
 10
25.0335
 20
5.3681
 30
0.0
 10
25.0335
 20
5.3681
 30
0.0
 10
25.0335
 20
5.3681
 30
0.0
 10
26.851
 20
5.3681
 30
0.0
 10
26.851
 20
5.3681
 30
0.0
 10
26.851
 20
5.3681
 30
0.0
 10
26.851
 20
5.3681
 30
0.0
 10
26.851
 20
4.9335
 30
0.0
 10
26.851
 20
4.9335
 30
0.0
 10
26.851
 20
4.9335
 30
0.0
 10
26.851
 20
4.9335
 30
0.0
 10
24.4521
 20
4.9335
 30
0.0
 10
24.4521
 20
4.9335
 30
0.0
  0
SPLINE
  5
9B
330
1F
100
AcDbEntity
  8
Layer 1
 62
     1
100
AcDbSpline
210
0.0
220
0.0
230
1.0
 70
    11
 71
     3
 72
    52
 73
    48
 74
     0
 42
0.000000001
 43
0.0000000001
 40
0.0
 40
0.0
 40
0.0
 40
0.0
 40
0.0769230769230769
 40
0.0769230769230769
 40
0.0769230769230769
 40
0.0769230769230769
 40
0.1538461538461539
 40
0.1538461538461539
 40
0.1538461538461539
 40
0.1538461538461539
 40
0.2307692307692308
 40
0.2307692307692308
 40
0.2307692307692308
 40
0.2307692307692308
 40
0.3076923076923077
 40
0.3076923076923077
 40
0.3076923076923077
 40
0.3076923076923077
 40
0.3846153846153846
 40
0.3846153846153846
 40
0.3846153846153846
 40
0.3846153846153846
 40
0.4615384615384616
 40
0.4615384615384616
 40
0.4615384615384616
 40
0.4615384615384616
 40
0.5384615384615384
 40
0.5384615384615384
 40
0.5384615384615384
 40
0.5384615384615384
 40
0.6153846153846154
 40
0.6153846153846154
 40
0.6153846153846154
 40
0.6153846153846154
 40
0.6923076923076923
 40
0.6923076923076923
 40
0.6923076923076923
 40
0.6923076923076923
 40
0.7692307692307693
 40
0.7692307692307693
 40
0.7692307692307693
 40
0.7692307692307693
 40
0.8461538461538461
 40
0.8461538461538461
 40
0.8461538461538461
 40
0.8461538461538461
 40
1.0
 40
1.0
 40
1.0
 40
1.0
 10
29.135
 20
4.8319
 30
0.0
 10
28.7484
 20
4.8319
 30
0.0
 10
28.4126
 20
4.9184
 30
0.0
 10
28.1256
 20
5.0906
 30
0.0
 10
28.1256
 20
5.0906
 30
0.0
 10
27.8397
 20
5.2637
 30
0.0
 10
27.6176
 20
5.5158
 30
0.0
 10
27.4605
 20
5.8479
 30
0.0
 10
27.4605
 20
5.8479
 30
0.0
 10
27.3034
 20
6.18
 30
0.0
 10
27.2244
 20
6.5553
 30
0.0
 10
27.2244
 20
6.974
 30
0.0
 10
27.2244
 20
6.974
 30
0.0
 10
27.2244
 20
7.3785
 30
0.0
 10
27.2997
 20
7.7463
 30
0.0
 10
27.4493
 20
8.0784
 30
0.0
 10
27.4493
 20
8.0784
 30
0.0
 10
27.5998
 20
8.4095
 30
0.0
 10
27.8208
 20
8.6654
 30
0.0
 10
28.1134
 20
8.846
 30
0.0
 10
28.1134
 20
8.846
 30
0.0
 10
28.406
 20
9.0257
 30
0.0
 10
28.7465
 20
9.116
 30
0.0
 10
29.135
 20
9.116
 30
0.0
 10
29.135
 20
9.116
 30
0.0
 10
29.5236
 20
9.116
 30
0.0
 10
29.8641
 20
9.0257
 30
0.0
 10
30.1567
 20
8.846
 30
0.0
 10
30.1567
 20
8.846
 30
0.0
 10
30.4493
 20
8.6654
 30
0.0
 10
30.6703
 20
8.4095
 30
0.0
 10
30.8208
 20
8.0784
 30
0.0
 10
30.8208
 20
8.0784
 30
0.0
 10
30.9704
 20
7.7463
 30
0.0
 10
31.0457
 20
7.3785
 30
0.0
 10
31.0457
 20
6.974
 30
0.0
 10
31.0457
 20
6.974
 30
0.0
 10
31.0457
 20
6.5713
 30
0.0
 10
30.9714
 20
6.2054
 30
0.0
 10
30.8237
 20
5.8752
 30
0.0
 10
30.8237
 20
5.8752
 30
0.0
 10
30.675
 20
5.545
 30
0.0
 10
30.4558
 20
5.2891
 30
0.0
 10
30.1661
 20
5.1066
 30
0.0
 10
30.1661
 20
5.1066
 30
0.0
 10
29.8763
 20
4.9232
 30
0.0
 10
29.533
 20
4.8319
 30
0.0
 10
29.135
 20
4.8319
 30
0.0
  0
SPLINE
  5
9C
330
1F
100
AcDbEntity
  8
Layer 1
 62
     1
100
AcDbSpline
210
0.0
220
0.0
230
1.0
 70
    11
 71
     3
 72
    36
 73
    32
 74
     0
 42
0.000000001
 43
0.0000000001
 40
0.0
 40
0.0
 40
0.0
 40
0.0
 40
0.1111111111111111
 40
0.1111111111111111
 40
0.1111111111111111
 40
0.1111111111111111
 40
0.2222222222222222
 40
0.2222222222222222
 40
0.2222222222222222
 40
0.2222222222222222
 40
0.3333333333333333
 40
0.3333333333333333
 40
0.3333333333333333
 40
0.3333333333333333
 40
0.4444444444444444
 40
0.4444444444444444
 40
0.4444444444444444
 40
0.4444444444444444
 40
0.5555555555555556
 40
0.5555555555555556
 40
0.5555555555555556
 40
0.5555555555555556
 40
0.6666666666666666
 40
0.6666666666666666
 40
0.6666666666666666
 40
0.6666666666666666
 40
0.7777777777777778
 40
0.7777777777777778
 40
0.7777777777777778
 40
0.7777777777777778
 40
1.0
 40
1.0
 40
1.0
 40
1.0
 10
29.135
 20
5.2665
 30
0.0
 10
29.5471
 20
5.2665
 30
0.0
 10
29.8669
 20
5.4199
 30
0.0
 10
30.0918
 20
5.7265
 30
0.0
 10
30.0918
 20
5.7265
 30
0.0
 10
30.3176
 20
6.0332
 30
0.0
 10
30.4304
 20
6.4509
 30
0.0
 10
30.4304
 20
6.9796
 30
0.0
 10
30.4304
 20
6.9796
 30
0.0
 10
30.4304
 20
7.5064
 30
0.0
 10
30.3166
 20
7.9222
 30
0.0
 10
30.089
 20
8.2261
 30
0.0
 10
30.089
 20
8.2261
 30
0.0
 10
29.8622
 20
8.5299
 30
0.0
 10
29.5443
 20
8.6814
 30
0.0
 10
29.135
 20
8.6814
 30
0.0
 10
29.135
 20
8.6814
 30
0.0
 10
28.7258
 20
8.6814
 30
0.0
 10
28.4079
 20
8.5299
 30
0.0
 10
28.1811
 20
8.2261
 30
0.0
 10
28.1811
 20
8.2261
 30
0.0
 10
27.9535
 20
7.9222
 30
0.0
 10
27.8397
 20
7.5064
 30
0.0
 10
27.8397
 20
6.9796
 30
0.0
 10
27.8397
 20
6.9796
 30
0.0
 10
27.8397
 20
6.4509
 30
0.0
 10
27.9525
 20
6.0332
 30
0.0
 10
28.1783
 20
5.7265
 30
0.0
 10
28.1783
 20
5.7265
 30
0.0
 10
28.4032
 20
5.4199
 30
0.0
 10
28.723
 20
5.2665
 30
0.0
 10
29.135
 20
5.2665
 30
0.0
  0
SPLINE
  5
9D
330
1F
100
AcDbEntity
  8
Layer 1
 62
     1
100
AcDbSpline
210
0.0
220
0.0
230
1.0
 70
    11
 71
     3
 72
    56
 73
    52
 74
     0
 42
0.000000001
 43
0.0000000001
 40
0.0
 40
0.0
 40
0.0
 40
0.0
 40
0.0714285714285714
 40
0.0714285714285714
 40
0.0714285714285714
 40
0.0714285714285714
 40
0.1428571428571428
 40
0.1428571428571428
 40
0.1428571428571428
 40
0.1428571428571428
 40
0.2142857142857143
 40
0.2142857142857143
 40
0.2142857142857143
 40
0.2142857142857143
 40
0.2857142857142857
 40
0.2857142857142857
 40
0.2857142857142857
 40
0.2857142857142857
 40
0.3571428571428572
 40
0.3571428571428572
 40
0.3571428571428572
 40
0.3571428571428572
 40
0.4285714285714285
 40
0.4285714285714285
 40
0.4285714285714285
 40
0.4285714285714285
 40
0.5
 40
0.5
 40
0.5
 40
0.5
 40
0.5714285714285714
 40
0.5714285714285714
 40
0.5714285714285714
 40
0.5714285714285714
 40
0.6428571428571429
 40
0.6428571428571429
 40
0.6428571428571429
 40
0.6428571428571429
 40
0.7142857142857143
 40
0.7142857142857143
 40
0.7142857142857143
 40
0.7142857142857143
 40
0.7857142857142857
 40
0.7857142857142857
 40
0.7857142857142857
 40
0.7857142857142857
 40
0.8571428571428571
 40
0.8571428571428571
 40
0.8571428571428571
 40
0.8571428571428571
 40
1.0
 40
1.0
 40
1.0
 40
1.0
 10
32.3872
 20
4.9335
 30
0.0
 10
32.3872
 20
4.9335
 30
0.0
 10
31.3326
 20
9.0144
 30
0.0
 10
31.3326
 20
9.0144
 30
0.0
 10
31.3326
 20
9.0144
 30
0.0
 10
31.3326
 20
9.0144
 30
0.0
 10
31.8914
 20
9.0144
 30
0.0
 10
31.8914
 20
9.0144
 30
0.0
 10
31.8914
 20
9.0144
 30
0.0
 10
31.8914
 20
9.0144
 30
0.0
 10
32.724
 20
5.7914
 30
0.0
 10
32.724
 20
5.7914
 30
0.0
 10
32.724
 20
5.7914
 30
0.0
 10
32.724
 20
5.7914
 30
0.0
 10
33.4944
 20
9.0144
 30
0.0
 10
33.4944
 20
9.0144
 30
0.0
 10
33.4944
 20
9.0144
 30
0.0
 10
33.4944
 20
9.0144
 30
0.0
 10
34.0476
 20
9.0144
 30
0.0
 10
34.0476
 20
9.0144
 30
0.0
 10
34.0476
 20
9.0144
 30
0.0
 10
34.0476
 20
9.0144
 30
0.0
 10
34.7729
 20
5.8366
 30
0.0
 10
34.7729
 20
5.8366
 30
0.0
 10
34.7729
 20
5.8366
 30
0.0
 10
34.7729
 20
5.8366
 30
0.0
 10
35.6732
 20
9.0144
 30
0.0
 10
35.6732
 20
9.0144
 30
0.0
 10
35.6732
 20
9.0144
 30
0.0
 10
35.6732
 20
9.0144
 30
0.0
 10
36.1417
 20
9.0144
 30
0.0
 10
36.1417
 20
9.0144
 30
0.0
 10
36.1417
 20
9.0144
 30
0.0
 10
36.1417
 20
9.0144
 30
0.0
 10
34.9921
 20
4.9335
 30
0.0
 10
34.9921
 20
4.9335
 30
0.0
 10
34.9921
 20
4.9335
 30
0.0
 10
34.9921
 20
4.9335
 30
0.0
 10
34.4239
 20
4.9335
 30
0.0
 10
34.4239
 20
4.9335
 30
0.0
 10
34.4239
 20
4.9335
 30
0.0
 10
34.4239
 20
4.9335
 30
0.0
 10
33.7061
 20
8.0774
 30
0.0
 10
33.7061
 20
8.0774
 30
0.0
 10
33.7061
 20
8.0774
 30
0.0
 10
33.7061
 20
8.0774
 30
0.0
 10
32.9545
 20
4.9335
 30
0.0
 10
32.9545
 20
4.9335
 30
0.0
 10
32.9545
 20
4.9335
 30
0.0
 10
32.9545
 20
4.9335
 30
0.0
 10
32.3872
 20
4.9335
 30
0.0
 10
32.3872
 20
4.9335
 30
0.0
  0
SPLINE
  5
9E
330
1F
100
AcDbEntity
  8
Layer 1
 62
     1
100
AcDbSpline
210
0.0
220
0.0
230
1.0
 70
    11
 71
     3
 72
    48
 73
    44
 74
     0
 42
0.000000001
 43
0.0000000001
 40
0.0
 40
0.0
 40
0.0
 40
0.0
 40
0.0833333333333333
 40
0.0833333333333333
 40
0.0833333333333333
 40
0.0833333333333333
 40
0.1666666666666667
 40
0.1666666666666667
 40
0.1666666666666667
 40
0.1666666666666667
 40
0.25
 40
0.25
 40
0.25
 40
0.25
 40
0.3333333333333333
 40
0.3333333333333333
 40
0.3333333333333333
 40
0.3333333333333333
 40
0.4166666666666667
 40
0.4166666666666667
 40
0.4166666666666667
 40
0.4166666666666667
 40
0.5
 40
0.5
 40
0.5
 40
0.5
 40
0.5833333333333334
 40
0.5833333333333334
 40
0.5833333333333334
 40
0.5833333333333334
 40
0.6666666666666666
 40
0.6666666666666666
 40
0.6666666666666666
 40
0.6666666666666666
 40
0.75
 40
0.75
 40
0.75
 40
0.75
 40
0.8333333333333334
 40
0.8333333333333334
 40
0.8333333333333334
 40
0.8333333333333334
 40
1.0
 40
1.0
 40
1.0
 40
1.0
 10
52.3209
 20
11.3606
 30
0.0
 10
52.3209
 20
11.3606
 30
0.0
 10
52.3209
 20
15.4415
 30
0.0
 10
52.3209
 20
15.4415
 30
0.0
 10
52.3209
 20
15.4415
 30
0.0
 10
52.3209
 20
15.4415
 30
0.0
 10
53.4121
 20
15.4415
 30
0.0
 10
53.4121
 20
15.4415
 30
0.0
 10
53.4121
 20
15.4415
 30
0.0
 10
53.7997
 20
15.4415
 30
0.0
 10
54.0782
 20
15.4029
 30
0.0
 10
54.2466
 20
15.3258
 30
0.0
 10
54.2466
 20
15.3258
 30
0.0
 10
54.4159
 20
15.2487
 30
0.0
 10
54.5448
 20
15.1301
 30
0.0
 10
54.6351
 20
14.9711
 30
0.0
 10
54.6351
 20
14.9711
 30
0.0
 10
54.7254
 20
14.8112
 30
0.0
 10
54.7706
 20
14.6118
 30
0.0
 10
54.7706
 20
14.3738
 30
0.0
 10
54.7706
 20
14.3738
 30
0.0
 10
54.7706
 20
14.0944
 30
0.0
 10
54.7113
 20
13.8507
 30
0.0
 10
54.5928
 20
13.6409
 30
0.0
 10
54.5928
 20
13.6409
 30
0.0
 10
54.4733
 20
13.4321
 30
0.0
 10
54.2823
 20
13.2703
 30
0.0
 10
54.0198
 20
13.1565
 30
0.0
 10
54.0198
 20
13.1565
 30
0.0
 10
53.7574
 20
13.0426
 30
0.0
 10
53.4676
 20
12.9862
 30
0.0
 10
53.1516
 20
12.9862
 30
0.0
 10
53.1516
 20
12.9862
 30
0.0
 10
53.1516
 20
12.9862
 30
0.0
 10
52.9023
 20
12.9862
 30
0.0
 10
52.9023
 20
12.9862
 30
0.0
 10
52.9023
 20
12.9862
 30
0.0
 10
52.9023
 20
12.9862
 30
0.0
 10
52.9023
 20
11.3606
 30
0.0
 10
52.9023
 20
11.3606
 30
0.0
 10
52.9023
 20
11.3606
 30
0.0
 10
52.9023
 20
11.3606
 30
0.0
 10
52.3209
 20
11.3606
 30
0.0
 10
52.3209
 20
11.3606
 30
0.0
  0
SPLINE
  5
9F
330
1F
100
AcDbEntity
  8
Layer 1
 62
     1
100
AcDbSpline
210
0.0
220
0.0
230
1.0
 70
    11
 71
     3
 72
    36
 73
    32
 74
     0
 42
0.000000001
 43
0.0000000001
 40
0.0
 40
0.0
 40
0.0
 40
0.0
 40
0.1111111111111111
 40
0.1111111111111111
 40
0.1111111111111111
 40
0.1111111111111111
 40
0.2222222222222222
 40
0.2222222222222222
 40
0.2222222222222222
 40
0.2222222222222222
 40
0.3333333333333333
 40
0.3333333333333333
 40
0.3333333333333333
 40
0.3333333333333333
 40
0.4444444444444444
 40
0.4444444444444444
 40
0.4444444444444444
 40
0.4444444444444444
 40
0.5555555555555556
 40
0.5555555555555556
 40
0.5555555555555556
 40
0.5555555555555556
 40
0.6666666666666666
 40
0.6666666666666666
 40
0.6666666666666666
 40
0.6666666666666666
 40
0.7777777777777778
 40
0.7777777777777778
 40
0.7777777777777778
 40
0.7777777777777778
 40
1.0
 40
1.0
 40
1.0
 40
1.0
 10
52.9023
 20
13.4208
 30
0.0
 10
52.9023
 20
13.4208
 30
0.0
 10
53.1262
 20
13.4208
 30
0.0
 10
53.1262
 20
13.4208
 30
0.0
 10
53.1262
 20
13.4208
 30
0.0
 10
53.493
 20
13.4208
 30
0.0
 10
53.7564
 20
13.5083
 30
0.0
 10
53.9154
 20
13.6823
 30
0.0
 10
53.9154
 20
13.6823
 30
0.0
 10
54.0754
 20
13.8564
 30
0.0
 10
54.1553
 20
14.0727
 30
0.0
 10
54.1553
 20
14.3296
 30
0.0
 10
54.1553
 20
14.3296
 30
0.0
 10
54.1553
 20
14.4688
 30
0.0
 10
54.1299
 20
14.5873
 30
0.0
 10
54.0791
 20
14.6833
 30
0.0
 10
54.0791
 20
14.6833
 30
0.0
 10
54.0283
 20
14.7802
 30
0.0
 10
53.9465
 20
14.8573
 30
0.0
 10
53.8345
 20
14.9175
 30
0.0
 10
53.8345
 20
14.9175
 30
0.0
 10
53.7216
 20
14.9768
 30
0.0
 10
53.5241
 20
15.0069
 30
0.0
 10
53.2419
 20
15.0069
 30
0.0
 10
53.2419
 20
15.0069
 30
0.0
 10
53.2419
 20
15.0069
 30
0.0
 10
52.9023
 20
15.0069
 30
0.0
 10
52.9023
 20
15.0069
 30
0.0
 10
52.9023
 20
15.0069
 30
0.0
 10
52.9023
 20
15.0069
 30
0.0
 10
52.9023
 20
13.4208
 30
0.0
 10
52.9023
 20
13.4208
 30
0.0
  0
SPLINE
  5
A0
330
1F
100
AcDbEntity
  8
Layer 1
 62
     1
100
AcDbSpline
210
0.0
220
0.0
230
1.0
 70
    11
 71
     3
 72
    52
 73
    48
 74
     0
 42
0.000000001
 43
0.0000000001
 40
0.0
 40
0.0
 40
0.0
 40
0.0
 40
0.0769230769230769
 40
0.0769230769230769
 40
0.0769230769230769
 40
0.0769230769230769
 40
0.1538461538461539
 40
0.1538461538461539
 40
0.1538461538461539
 40
0.1538461538461539
 40
0.2307692307692308
 40
0.2307692307692308
 40
0.2307692307692308
 40
0.2307692307692308
 40
0.3076923076923077
 40
0.3076923076923077
 40
0.3076923076923077
 40
0.3076923076923077
 40
0.3846153846153846
 40
0.3846153846153846
 40
0.3846153846153846
 40
0.3846153846153846
 40
0.4615384615384616
 40
0.4615384615384616
 40
0.4615384615384616
 40
0.4615384615384616
 40
0.5384615384615384
 40
0.5384615384615384
 40
0.5384615384615384
 40
0.5384615384615384
 40
0.6153846153846154
 40
0.6153846153846154
 40
0.6153846153846154
 40
0.6153846153846154
 40
0.6923076923076923
 40
0.6923076923076923
 40
0.6923076923076923
 40
0.6923076923076923
 40
0.7692307692307693
 40
0.7692307692307693
 40
0.7692307692307693
 40
0.7692307692307693
 40
0.8461538461538461
 40
0.8461538461538461
 40
0.8461538461538461
 40
0.8461538461538461
 40
1.0
 40
1.0
 40
1.0
 40
1.0
 10
55.4404
 20
11.3606
 30
0.0
 10
55.4404
 20
11.3606
 30
0.0
 10
55.4404
 20
15.4415
 30
0.0
 10
55.4404
 20
15.4415
 30
0.0
 10
55.4404
 20
15.4415
 30
0.0
 10
55.4404
 20
15.4415
 30
0.0
 10
57.732
 20
15.4415
 30
0.0
 10
57.732
 20
15.4415
 30
0.0
 10
57.732
 20
15.4415
 30
0.0
 10
57.732
 20
15.4415
 30
0.0
 10
57.732
 20
15.0069
 30
0.0
 10
57.732
 20
15.0069
 30
0.0
 10
57.732
 20
15.0069
 30
0.0
 10
57.732
 20
15.0069
 30
0.0
 10
56.0218
 20
15.0069
 30
0.0
 10
56.0218
 20
15.0069
 30
0.0
 10
56.0218
 20
15.0069
 30
0.0
 10
56.0218
 20
15.0069
 30
0.0
 10
56.0218
 20
13.7087
 30
0.0
 10
56.0218
 20
13.7087
 30
0.0
 10
56.0218
 20
13.7087
 30
0.0
 10
56.0218
 20
13.7087
 30
0.0
 10
57.4554
 20
13.7087
 30
0.0
 10
57.4554
 20
13.7087
 30
0.0
 10
57.4554
 20
13.7087
 30
0.0
 10
57.4554
 20
13.7087
 30
0.0
 10
57.4554
 20
13.2741
 30
0.0
 10
57.4554
 20
13.2741
 30
0.0
 10
57.4554
 20
13.2741
 30
0.0
 10
57.4554
 20
13.2741
 30
0.0
 10
56.0218
 20
13.2741
 30
0.0
 10
56.0218
 20
13.2741
 30
0.0
 10
56.0218
 20
13.2741
 30
0.0
 10
56.0218
 20
13.2741
 30
0.0
 10
56.0218
 20
11.7952
 30
0.0
 10
56.0218
 20
11.7952
 30
0.0
 10
56.0218
 20
11.7952
 30
0.0
 10
56.0218
 20
11.7952
 30
0.0
 10
57.8505
 20
11.7952
 30
0.0
 10
57.8505
 20
11.7952
 30
0.0
 10
57.8505
 20
11.7952
 30
0.0
 10
57.8505
 20
11.7952
 30
0.0
 10
57.8505
 20
11.3606
 30
0.0
 10
57.8505
 20
11.3606
 30
0.0
 10
57.8505
 20
11.3606
 30
0.0
 10
57.8505
 20
11.3606
 30
0.0
 10
55.4404
 20
11.3606
 30
0.0
 10
55.4404
 20
11.3606
 30
0.0
  0
SPLINE
  5
A1
330
1F
100
AcDbEntity
  8
Layer 1
 62
     1
100
AcDbSpline
210
0.0
220
0.0
230
1.0
 70
    11
 71
     3
 72
    56
 73
    52
 74
     0
 42
0.000000001
 43
0.0000000001
 40
0.0
 40
0.0
 40
0.0
 40
0.0
 40
0.0714285714285714
 40
0.0714285714285714
 40
0.0714285714285714
 40
0.0714285714285714
 40
0.1428571428571428
 40
0.1428571428571428
 40
0.1428571428571428
 40
0.1428571428571428
 40
0.2142857142857143
 40
0.2142857142857143
 40
0.2142857142857143
 40
0.2142857142857143
 40
0.2857142857142857
 40
0.2857142857142857
 40
0.2857142857142857
 40
0.2857142857142857
 40
0.3571428571428572
 40
0.3571428571428572
 40
0.3571428571428572
 40
0.3571428571428572
 40
0.4285714285714285
 40
0.4285714285714285
 40
0.4285714285714285
 40
0.4285714285714285
 40
0.5
 40
0.5
 40
0.5
 40
0.5
 40
0.5714285714285714
 40
0.5714285714285714
 40
0.5714285714285714
 40
0.5714285714285714
 40
0.6428571428571429
 40
0.6428571428571429
 40
0.6428571428571429
 40
0.6428571428571429
 40
0.7142857142857143
 40
0.7142857142857143
 40
0.7142857142857143
 40
0.7142857142857143
 40
0.7857142857142857
 40
0.7857142857142857
 40
0.7857142857142857
 40
0.7857142857142857
 40
0.8571428571428571
 40
0.8571428571428571
 40
0.8571428571428571
 40
0.8571428571428571
 40
1.0
 40
1.0
 40
1.0
 40
1.0
 10
58.4997
 20
11.3606
 30
0.0
 10
58.4997
 20
11.3606
 30
0.0
 10
58.4997
 20
15.4415
 30
0.0
 10
58.4997
 20
15.4415
 30
0.0
 10
58.4997
 20
15.4415
 30
0.0
 10
58.4997
 20
15.4415
 30
0.0
 10
59.7339
 20
15.4415
 30
0.0
 10
59.7339
 20
15.4415
 30
0.0
 10
59.7339
 20
15.4415
 30
0.0
 10
60.1911
 20
15.4415
 30
0.0
 10
60.5072
 20
15.339
 30
0.0
 10
60.6822
 20
15.1339
 30
0.0
 10
60.6822
 20
15.1339
 30
0.0
 10
60.8562
 20
14.9288
 30
0.0
 10
60.9437
 20
14.6936
 30
0.0
 10
60.9437
 20
14.4283
 30
0.0
 10
60.9437
 20
14.4283
 30
0.0
 10
60.9437
 20
14.2731
 30
0.0
 10
60.9127
 20
14.1207
 30
0.0
 10
60.8515
 20
13.9693
 30
0.0
 10
60.8515
 20
13.9693
 30
0.0
 10
60.7904
 20
13.8187
 30
0.0
 10
60.7038
 20
13.6842
 30
0.0
 10
60.59
 20
13.5666
 30
0.0
 10
60.59
 20
13.5666
 30
0.0
 10
60.4771
 20
13.449
 30
0.0
 10
60.3228
 20
13.3493
 30
0.0
 10
60.1272
 20
13.2684
 30
0.0
 10
60.1272
 20
13.2684
 30
0.0
 10
60.1272
 20
13.2684
 30
0.0
 10
61.4799
 20
11.3606
 30
0.0
 10
61.4799
 20
11.3606
 30
0.0
 10
61.4799
 20
11.3606
 30
0.0
 10
61.4799
 20
11.3606
 30
0.0
 10
60.7716
 20
11.3606
 30
0.0
 10
60.7716
 20
11.3606
 30
0.0
 10
60.7716
 20
11.3606
 30
0.0
 10
60.7716
 20
11.3606
 30
0.0
 10
59.6192
 20
13.0821
 30
0.0
 10
59.6192
 20
13.0821
 30
0.0
 10
59.6192
 20
13.0821
 30
0.0
 10
59.6192
 20
13.0821
 30
0.0
 10
59.0811
 20
13.0821
 30
0.0
 10
59.0811
 20
13.0821
 30
0.0
 10
59.0811
 20
13.0821
 30
0.0
 10
59.0811
 20
13.0821
 30
0.0
 10
59.0811
 20
11.3606
 30
0.0
 10
59.0811
 20
11.3606
 30
0.0
 10
59.0811
 20
11.3606
 30
0.0
 10
59.0811
 20
11.3606
 30
0.0
 10
58.4997
 20
11.3606
 30
0.0
 10
58.4997
 20
11.3606
 30
0.0
  0
SPLINE
  5
A2
330
1F
100
AcDbEntity
  8
Layer 1
 62
     1
100
AcDbSpline
210
0.0
220
0.0
230
1.0
 70
    11
 71
     3
 72
    36
 73
    32
 74
     0
 42
0.000000001
 43
0.0000000001
 40
0.0
 40
0.0
 40
0.0
 40
0.0
 40
0.1111111111111111
 40
0.1111111111111111
 40
0.1111111111111111
 40
0.1111111111111111
 40
0.2222222222222222
 40
0.2222222222222222
 40
0.2222222222222222
 40
0.2222222222222222
 40
0.3333333333333333
 40
0.3333333333333333
 40
0.3333333333333333
 40
0.3333333333333333
 40
0.4444444444444444
 40
0.4444444444444444
 40
0.4444444444444444
 40
0.4444444444444444
 40
0.5555555555555556
 40
0.5555555555555556
 40
0.5555555555555556
 40
0.5555555555555556
 40
0.6666666666666666
 40
0.6666666666666666
 40
0.6666666666666666
 40
0.6666666666666666
 40
0.7777777777777778
 40
0.7777777777777778
 40
0.7777777777777778
 40
0.7777777777777778
 40
1.0
 40
1.0
 40
1.0
 40
1.0
 10
59.0811
 20
13.5168
 30
0.0
 10
59.0811
 20
13.5168
 30
0.0
 10
59.2673
 20
13.5168
 30
0.0
 10
59.2673
 20
13.5168
 30
0.0
 10
59.2673
 20
13.5168
 30
0.0
 10
59.6944
 20
13.5168
 30
0.0
 10
59.9813
 20
13.6061
 30
0.0
 10
60.129
 20
13.7849
 30
0.0
 10
60.129
 20
13.7849
 30
0.0
 10
60.2767
 20
13.9627
 30
0.0
 10
60.351
 20
14.1593
 30
0.0
 10
60.351
 20
14.3719
 30
0.0
 10
60.351
 20
14.3719
 30
0.0
 10
60.351
 20
14.4989
 30
0.0
 10
60.3228
 20
14.6099
 30
0.0
 10
60.2673
 20
14.7049
 30
0.0
 10
60.2673
 20
14.7049
 30
0.0
 10
60.2118
 20
14.799
 30
0.0
 10
60.1253
 20
14.8733
 30
0.0
 10
60.0077
 20
14.9269
 30
0.0
 10
60.0077
 20
14.9269
 30
0.0
 10
59.8901
 20
14.9805
 30
0.0
 10
59.701
 20
15.0069
 30
0.0
 10
59.4423
 20
15.0069
 30
0.0
 10
59.4423
 20
15.0069
 30
0.0
 10
59.4423
 20
15.0069
 30
0.0
 10
59.0811
 20
15.0069
 30
0.0
 10
59.0811
 20
15.0069
 30
0.0
 10
59.0811
 20
15.0069
 30
0.0
 10
59.0811
 20
15.0069
 30
0.0
 10
59.0811
 20
13.5168
 30
0.0
 10
59.0811
 20
13.5168
 30
0.0
  0
SPLINE
  5
A3
330
1F
100
AcDbEntity
  8
Layer 1
 62
     1
100
AcDbSpline
210
0.0
220
0.0
230
1.0
 70
    11
 71
     3
 72
    80
 73
    76
 74
     0
 42
0.000000001
 43
0.0000000001
 40
0.0
 40
0.0
 40
0.0
 40
0.0
 40
0.05
 40
0.05
 40
0.05
 40
0.05
 40
0.1
 40
0.1
 40
0.1
 40
0.1
 40
0.15
 40
0.15
 40
0.15
 40
0.15
 40
0.2
 40
0.2
 40
0.2
 40
0.2
 40
0.25
 40
0.25
 40
0.25
 40
0.25
 40
0.3
 40
0.3
 40
0.3
 40
0.3
 40
0.35
 40
0.35
 40
0.35
 40
0.35
 40
0.4
 40
0.4
 40
0.4
 40
0.4
 40
0.45
 40
0.45
 40
0.45
 40
0.45
 40
0.5
 40
0.5
 40
0.5
 40
0.5
 40
0.55
 40
0.55
 40
0.55
 40
0.55
 40
0.6
 40
0.6
 40
0.6
 40
0.6
 40
0.65
 40
0.65
 40
0.65
 40
0.65
 40
0.7
 40
0.7
 40
0.7
 40
0.7
 40
0.75
 40
0.75
 40
0.75
 40
0.75
 40
0.8
 40
0.8
 40
0.8
 40
0.8
 40
0.85
 40
0.85
 40
0.85
 40
0.85
 40
0.9
 40
0.9
 40
0.9
 40
0.9
 40
1.0
 40
1.0
 40
1.0
 40
1.0
 10
65.1393
 20
11.5694
 30
0.0
 10
64.9719
 20
11.4838
 30
0.0
 10
64.8223
 20
11.4199
 30
0.0
 10
64.6915
 20
11.3785
 30
0.0
 10
64.6915
 20
11.3785
 30
0.0
 10
64.5598
 20
11.3371
 30
0.0
 10
64.4234
 20
11.307
 30
0.0
 10
64.2814
 20
11.2882
 30
0.0
 10
64.2814
 20
11.2882
 30
0.0
 10
64.1403
 20
11.2684
 30
0.0
 10
63.986
 20
11.259
 30
0.0
 10
63.8204
 20
11.259
 30
0.0
 10
63.8204
 20
11.259
 30
0.0
 10
63.1328
 20
11.259
 30
0.0
 10
62.6295
 20
11.4622
 30
0.0
 10
62.3106
 20
11.8686
 30
0.0
 10
62.3106
 20
11.8686
 30
0.0
 10
61.9916
 20
12.2741
 30
0.0
 10
61.8317
 20
12.7849
 30
0.0
 10
61.8317
 20
13.3982
 30
0.0
 10
61.8317
 20
13.3982
 30
0.0
 10
61.8317
 20
14.0248
 30
0.0
 10
61.9973
 20
14.5393
 30
0.0
 10
62.3284
 20
14.941
 30
0.0
 10
62.3284
 20
14.941
 30
0.0
 10
62.6596
 20
15.3427
 30
0.0
 10
63.1666
 20
15.5431
 30
0.0
 10
63.8515
 20
15.5431
 30
0.0
 10
63.8515
 20
15.5431
 30
0.0
 10
64.2155
 20
15.5431
 30
0.0
 10
64.6426
 20
15.4829
 30
0.0
 10
65.1337
 20
15.3625
 30
0.0
 10
65.1337
 20
15.3625
 30
0.0
 10
65.1337
 20
15.3625
 30
0.0
 10
65.1337
 20
14.8206
 30
0.0
 10
65.1337
 20
14.8206
 30
0.0
 10
65.1337
 20
14.8206
 30
0.0
 10
64.7217
 20
14.9617
 30
0.0
 10
64.4385
 20
15.0445
 30
0.0
 10
64.2833
 20
15.0699
 30
0.0
 10
64.2833
 20
15.0699
 30
0.0
 10
64.1271
 20
15.0953
 30
0.0
 10
63.9794
 20
15.1085
 30
0.0
 10
63.8402
 20
15.1085
 30
0.0
 10
63.8402
 20
15.1085
 30
0.0
 10
63.351
 20
15.1085
 30
0.0
 10
62.9963
 20
14.9429
 30
0.0
 10
62.7762
 20
14.6108
 30
0.0
 10
62.7762
 20
14.6108
 30
0.0
 10
62.557
 20
14.2797
 30
0.0
 10
62.447
 20
13.8733
 30
0.0
 10
62.447
 20
13.3916
 30
0.0
 10
62.447
 20
13.3916
 30
0.0
 10
62.447
 20
12.8902
 30
0.0
 10
62.573
 20
12.4848
 30
0.0
 10
62.8261
 20
12.1753
 30
0.0
 10
62.8261
 20
12.1753
 30
0.0
 10
63.0791
 20
11.8658
 30
0.0
 10
63.4376
 20
11.7106
 30
0.0
 10
63.9004
 20
11.7106
 30
0.0
 10
63.9004
 20
11.7106
 30
0.0
 10
64.0293
 20
11.7106
 30
0.0
 10
64.1582
 20
11.7218
 30
0.0
 10
64.2852
 20
11.7454
 30
0.0
 10
64.2852
 20
11.7454
 30
0.0
 10
64.4131
 20
11.7679
 30
0.0
 10
64.541
 20
11.8018
 30
0.0
 10
64.668
 20
11.847
 30
0.0
 10
64.668
 20
11.847
 30
0.0
 10
64.7941
 20
11.8921
 30
0.0
 10
64.9521
 20
11.9655
 30
0.0
 10
65.1393
 20
12.0662
 30
0.0
 10
65.1393
 20
12.0662
 30
0.0
 10
65.1393
 20
12.0662
 30
0.0
 10
65.1393
 20
11.5694
 30
0.0
 10
65.1393
 20
11.5694
 30
0.0
  0
SPLINE
  5
A4
330
1F
100
AcDbEntity
  8
Layer 1
 62
     1
100
AcDbSpline
210
0.0
220
0.0
230
1.0
 70
    11
 71
     3
 72
   116
 73
   112
 74
     0
 42
0.000000001
 43
0.0000000001
 40
0.0
 40
0.0
 40
0.0
 40
0.0
 40
0.0344827586206897
 40
0.0344827586206897
 40
0.0344827586206897
 40
0.0344827586206897
 40
0.0689655172413793
 40
0.0689655172413793
 40
0.0689655172413793
 40
0.0689655172413793
 40
0.103448275862069
 40
0.103448275862069
 40
0.103448275862069
 40
0.103448275862069
 40
0.1379310344827586
 40
0.1379310344827586
 40
0.1379310344827586
 40
0.1379310344827586
 40
0.1724137931034483
 40
0.1724137931034483
 40
0.1724137931034483
 40
0.1724137931034483
 40
0.2068965517241379
 40
0.2068965517241379
 40
0.2068965517241379
 40
0.2068965517241379
 40
0.2413793103448276
 40
0.2413793103448276
 40
0.2413793103448276
 40
0.2413793103448276
 40
0.2758620689655172
 40
0.2758620689655172
 40
0.2758620689655172
 40
0.2758620689655172
 40
0.3103448275862069
 40
0.3103448275862069
 40
0.3103448275862069
 40
0.3103448275862069
 40
0.3448275862068966
 40
0.3448275862068966
 40
0.3448275862068966
 40
0.3448275862068966
 40
0.3793103448275862
 40
0.3793103448275862
 40
0.3793103448275862
 40
0.3793103448275862
 40
0.4137931034482759
 40
0.4137931034482759
 40
0.4137931034482759
 40
0.4137931034482759
 40
0.4482758620689655
 40
0.4482758620689655
 40
0.4482758620689655
 40
0.4482758620689655
 40
0.4827586206896552
 40
0.4827586206896552
 40
0.4827586206896552
 40
0.4827586206896552
 40
0.5172413793103449
 40
0.5172413793103449
 40
0.5172413793103449
 40
0.5172413793103449
 40
0.5517241379310345
 40
0.5517241379310345
 40
0.5517241379310345
 40
0.5517241379310345
 40
0.5862068965517241
 40
0.5862068965517241
 40
0.5862068965517241
 40
0.5862068965517241
 40
0.6206896551724138
 40
0.6206896551724138
 40
0.6206896551724138
 40
0.6206896551724138
 40
0.6551724137931034
 40
0.6551724137931034
 40
0.6551724137931034
 40
0.6551724137931034
 40
0.6896551724137931
 40
0.6896551724137931
 40
0.6896551724137931
 40
0.6896551724137931
 40
0.7241379310344828
 40
0.7241379310344828
 40
0.7241379310344828
 40
0.7241379310344828
 40
0.7586206896551724
 40
0.7586206896551724
 40
0.7586206896551724
 40
0.7586206896551724
 40
0.7931034482758621
 40
0.7931034482758621
 40
0.7931034482758621
 40
0.7931034482758621
 40
0.8275862068965517
 40
0.8275862068965517
 40
0.8275862068965517
 40
0.8275862068965517
 40
0.8620689655172413
 40
0.8620689655172413
 40
0.8620689655172413
 40
0.8620689655172413
 40
0.896551724137931
 40
0.896551724137931
 40
0.896551724137931
 40
0.896551724137931
 40
0.9310344827586207
 40
0.9310344827586207
 40
0.9310344827586207
 40
0.9310344827586207
 40
1.0
 40
1.0
 40
1.0
 40
1.0
 10
53.5152
 20
4.9617
 30
0.0
 10
53.5152
 20
4.9617
 30
0.0
 10
53.5152
 20
5.4697
 30
0.0
 10
53.5152
 20
5.4697
 30
0.0
 10
53.5152
 20
5.4697
 30
0.0
 10
53.9037
 20
5.3154
 30
0.0
 10
54.2094
 20
5.2383
 30
0.0
 10
54.4324
 20
5.2383
 30
0.0
 10
54.4324
 20
5.2383
 30
0.0
 10
54.692
 20
5.2383
 30
0.0
 10
54.9037
 20
5.3145
 30
0.0
 10
55.0683
 20
5.466
 30
0.0
 10
55.0683
 20
5.466
 30
0.0
 10
55.233
 20
5.6174
 30
0.0
 10
55.3157
 20
5.814
 30
0.0
 10
55.3157
 20
6.0549
 30
0.0
 10
55.3157
 20
6.0549
 30
0.0
 10
55.3157
 20
6.29
 30
0.0
 10
55.2311
 20
6.4923
 30
0.0
 10
55.0627
 20
6.6607
 30
0.0
 10
55.0627
 20
6.6607
 30
0.0
 10
54.8943
 20
6.83
 30
0.0
 10
54.5763
 20
6.9147
 30
0.0
 10
54.1088
 20
6.9147
 30
0.0
 10
54.1088
 20
6.9147
 30
0.0
 10
54.1088
 20
6.9147
 30
0.0
 10
53.8934
 20
6.9147
 30
0.0
 10
53.8934
 20
6.9147
 30
0.0
 10
53.8934
 20
6.9147
 30
0.0
 10
53.8934
 20
6.9147
 30
0.0
 10
53.8934
 20
7.2787
 30
0.0
 10
53.8934
 20
7.2787
 30
0.0
 10
53.8934
 20
7.2787
 30
0.0
 10
53.8934
 20
7.2787
 30
0.0
 10
54.0834
 20
7.2816
 30
0.0
 10
54.0834
 20
7.2816
 30
0.0
 10
54.0834
 20
7.2816
 30
0.0
 10
54.5189
 20
7.2816
 30
0.0
 10
54.8162
 20
7.3615
 30
0.0
 10
54.9752
 20
7.5205
 30
0.0
 10
54.9752
 20
7.5205
 30
0.0
 10
55.1342
 20
7.6804
 30
0.0
 10
55.2141
 20
7.8676
 30
0.0
 10
55.2141
 20
8.0812
 30
0.0
 10
55.2141
 20
8.0812
 30
0.0
 10
55.2141
 20
8.2712
 30
0.0
 10
55.1511
 20
8.4236
 30
0.0
 10
55.0251
 20
8.5384
 30
0.0
 10
55.0251
 20
8.5384
 30
0.0
 10
54.8999
 20
8.6522
 30
0.0
 10
54.7127
 20
8.7096
 30
0.0
 10
54.4644
 20
8.7096
 30
0.0
 10
54.4644
 20
8.7096
 30
0.0
 10
54.1963
 20
8.7096
 30
0.0
 10
53.899
 20
8.6343
 30
0.0
 10
53.5716
 20
8.4838
 30
0.0
 10
53.5716
 20
8.4838
 30
0.0
 10
53.5716
 20
8.4838
 30
0.0
 10
53.5716
 20
8.9523
 30
0.0
 10
53.5716
 20
8.9523
 30
0.0
 10
53.5716
 20
8.9523
 30
0.0
 10
53.8049
 20
9.0323
 30
0.0
 10
53.9874
 20
9.0793
 30
0.0
 10
54.1182
 20
9.0934
 30
0.0
 10
54.1182
 20
9.0934
 30
0.0
 10
54.248
 20
9.1085
 30
0.0
 10
54.376
 20
9.116
 30
0.0
 10
54.5011
 20
9.116
 30
0.0
 10
54.5011
 20
9.116
 30
0.0
 10
54.9329
 20
9.116
 30
0.0
 10
55.2518
 20
9.0295
 30
0.0
 10
55.4559
 20
8.8564
 30
0.0
 10
55.4559
 20
8.8564
 30
0.0
 10
55.6601
 20
8.6833
 30
0.0
 10
55.7617
 20
8.4547
 30
0.0
 10
55.7617
 20
8.1687
 30
0.0
 10
55.7617
 20
8.1687
 30
0.0
 10
55.7617
 20
8.0088
 30
0.0
 10
55.7325
 20
7.8686
 30
0.0
 10
55.6732
 20
7.7482
 30
0.0
 10
55.6732
 20
7.7482
 30
0.0
 10
55.614
 20
7.6278
 30
0.0
 10
55.5246
 20
7.5149
 30
0.0
 10
55.4051
 20
7.4114
 30
0.0
 10
55.4051
 20
7.4114
 30
0.0
 10
55.2856
 20
7.307
 30
0.0
 10
55.1201
 20
7.2176
 30
0.0
 10
54.9084
 20
7.1423
 30
0.0
 10
54.9084
 20
7.1423
 30
0.0
 10
55.1756
 20
7.0793
 30
0.0
 10
55.3741
 20
6.9994
 30
0.0
 10
55.5039
 20
6.9025
 30
0.0
 10
55.5039
 20
6.9025
 30
0.0
 10
55.6337
 20
6.8056
 30
0.0
 10
55.7316
 20
6.6833
 30
0.0
 10
55.7974
 20
6.5365
 30
0.0
 10
55.7974
 20
6.5365
 30
0.0
 10
55.8642
 20
6.3898
 30
0.0
 10
55.8971
 20
6.2317
 30
0.0
 10
55.8971
 20
6.0624
 30
0.0
 10
55.8971
 20
6.0624
 30
0.0
 10
55.8971
 20
5.7435
 30
0.0
 10
55.788
 20
5.4584
 30
0.0
 10
55.5688
 20
5.2082
 30
0.0
 10
55.5688
 20
5.2082
 30
0.0
 10
55.3496
 20
4.957
 30
0.0
 10
54.9837
 20
4.8319
 30
0.0
 10
54.47
 20
4.8319
 30
0.0
 10
54.47
 20
4.8319
 30
0.0
 10
54.216
 20
4.8319
 30
0.0
 10
53.8981
 20
4.8752
 30
0.0
 10
53.5152
 20
4.9617
 30
0.0
  0
SPLINE
  5
A5
330
1F
100
AcDbEntity
  8
Layer 1
 62
     1
100
AcDbSpline
210
0.0
220
0.0
230
1.0
 70
    11
 71
     3
 72
    56
 73
    52
 74
     0
 42
0.000000001
 43
0.0000000001
 40
0.0
 40
0.0
 40
0.0
 40
0.0
 40
0.0714285714285714
 40
0.0714285714285714
 40
0.0714285714285714
 40
0.0714285714285714
 40
0.1428571428571428
 40
0.1428571428571428
 40
0.1428571428571428
 40
0.1428571428571428
 40
0.2142857142857143
 40
0.2142857142857143
 40
0.2142857142857143
 40
0.2142857142857143
 40
0.2857142857142857
 40
0.2857142857142857
 40
0.2857142857142857
 40
0.2857142857142857
 40
0.3571428571428572
 40
0.3571428571428572
 40
0.3571428571428572
 40
0.3571428571428572
 40
0.4285714285714285
 40
0.4285714285714285
 40
0.4285714285714285
 40
0.4285714285714285
 40
0.5
 40
0.5
 40
0.5
 40
0.5
 40
0.5714285714285714
 40
0.5714285714285714
 40
0.5714285714285714
 40
0.5714285714285714
 40
0.6428571428571429
 40
0.6428571428571429
 40
0.6428571428571429
 40
0.6428571428571429
 40
0.7142857142857143
 40
0.7142857142857143
 40
0.7142857142857143
 40
0.7142857142857143
 40
0.7857142857142857
 40
0.7857142857142857
 40
0.7857142857142857
 40
0.7857142857142857
 40
0.8571428571428571
 40
0.8571428571428571
 40
0.8571428571428571
 40
0.8571428571428571
 40
1.0
 40
1.0
 40
1.0
 40
1.0
 10
57.0335
 20
4.9335
 30
0.0
 10
57.0335
 20
4.9335
 30
0.0
 10
57.0335
 20
9.0144
 30
0.0
 10
57.0335
 20
9.0144
 30
0.0
 10
57.0335
 20
9.0144
 30
0.0
 10
57.0335
 20
9.0144
 30
0.0
 10
58.2677
 20
9.0144
 30
0.0
 10
58.2677
 20
9.0144
 30
0.0
 10
58.2677
 20
9.0144
 30
0.0
 10
58.7249
 20
9.0144
 30
0.0
 10
59.041
 20
8.9119
 30
0.0
 10
59.216
 20
8.7068
 30
0.0
 10
59.216
 20
8.7068
 30
0.0
 10
59.39
 20
8.5017
 30
0.0
 10
59.4775
 20
8.2665
 30
0.0
 10
59.4775
 20
8.0012
 30
0.0
 10
59.4775
 20
8.0012
 30
0.0
 10
59.4775
 20
7.846
 30
0.0
 10
59.4465
 20
7.6936
 30
0.0
 10
59.3853
 20
7.5422
 30
0.0
 10
59.3853
 20
7.5422
 30
0.0
 10
59.3242
 20
7.3916
 30
0.0
 10
59.2376
 20
7.2571
 30
0.0
 10
59.1238
 20
7.1395
 30
0.0
 10
59.1238
 20
7.1395
 30
0.0
 10
59.0109
 20
7.0219
 30
0.0
 10
58.8566
 20
6.9222
 30
0.0
 10
58.661
 20
6.8413
 30
0.0
 10
58.661
 20
6.8413
 30
0.0
 10
58.661
 20
6.8413
 30
0.0
 10
60.0137
 20
4.9335
 30
0.0
 10
60.0137
 20
4.9335
 30
0.0
 10
60.0137
 20
4.9335
 30
0.0
 10
60.0137
 20
4.9335
 30
0.0
 10
59.3054
 20
4.9335
 30
0.0
 10
59.3054
 20
4.9335
 30
0.0
 10
59.3054
 20
4.9335
 30
0.0
 10
59.3054
 20
4.9335
 30
0.0
 10
58.153
 20
6.655
 30
0.0
 10
58.153
 20
6.655
 30
0.0
 10
58.153
 20
6.655
 30
0.0
 10
58.153
 20
6.655
 30
0.0
 10
57.6149
 20
6.655
 30
0.0
 10
57.6149
 20
6.655
 30
0.0
 10
57.6149
 20
6.655
 30
0.0
 10
57.6149
 20
6.655
 30
0.0
 10
57.6149
 20
4.9335
 30
0.0
 10
57.6149
 20
4.9335
 30
0.0
 10
57.6149
 20
4.9335
 30
0.0
 10
57.6149
 20
4.9335
 30
0.0
 10
57.0335
 20
4.9335
 30
0.0
 10
57.0335
 20
4.9335
 30
0.0
  0
SPLINE
  5
A6
330
1F
100
AcDbEntity
  8
Layer 1
 62
     1
100
AcDbSpline
210
0.0
220
0.0
230
1.0
 70
    11
 71
     3
 72
    36
 73
    32
 74
     0
 42
0.000000001
 43
0.0000000001
 40
0.0
 40
0.0
 40
0.0
 40
0.0
 40
0.1111111111111111
 40
0.1111111111111111
 40
0.1111111111111111
 40
0.1111111111111111
 40
0.2222222222222222
 40
0.2222222222222222
 40
0.2222222222222222
 40
0.2222222222222222
 40
0.3333333333333333
 40
0.3333333333333333
 40
0.3333333333333333
 40
0.3333333333333333
 40
0.4444444444444444
 40
0.4444444444444444
 40
0.4444444444444444
 40
0.4444444444444444
 40
0.5555555555555556
 40
0.5555555555555556
 40
0.5555555555555556
 40
0.5555555555555556
 40
0.6666666666666666
 40
0.6666666666666666
 40
0.6666666666666666
 40
0.6666666666666666
 40
0.7777777777777778
 40
0.7777777777777778
 40
0.7777777777777778
 40
0.7777777777777778
 40
1.0
 40
1.0
 40
1.0
 40
1.0
 10
57.6149
 20
7.0897
 30
0.0
 10
57.6149
 20
7.0897
 30
0.0
 10
57.8011
 20
7.0897
 30
0.0
 10
57.8011
 20
7.0897
 30
0.0
 10
57.8011
 20
7.0897
 30
0.0
 10
58.2282
 20
7.0897
 30
0.0
 10
58.5151
 20
7.179
 30
0.0
 10
58.6628
 20
7.3578
 30
0.0
 10
58.6628
 20
7.3578
 30
0.0
 10
58.8105
 20
7.5356
 30
0.0
 10
58.8848
 20
7.7322
 30
0.0
 10
58.8848
 20
7.9448
 30
0.0
 10
58.8848
 20
7.9448
 30
0.0
 10
58.8848
 20
8.0718
 30
0.0
 10
58.8566
 20
8.1828
 30
0.0
 10
58.8011
 20
8.2778
 30
0.0
 10
58.8011
 20
8.2778
 30
0.0
 10
58.7456
 20
8.3719
 30
0.0
 10
58.6591
 20
8.4462
 30
0.0
 10
58.5415
 20
8.4998
 30
0.0
 10
58.5415
 20
8.4998
 30
0.0
 10
58.4239
 20
8.5534
 30
0.0
 10
58.2348
 20
8.5798
 30
0.0
 10
57.9761
 20
8.5798
 30
0.0
 10
57.9761
 20
8.5798
 30
0.0
 10
57.9761
 20
8.5798
 30
0.0
 10
57.6149
 20
8.5798
 30
0.0
 10
57.6149
 20
8.5798
 30
0.0
 10
57.6149
 20
8.5798
 30
0.0
 10
57.6149
 20
8.5798
 30
0.0
 10
57.6149
 20
7.0897
 30
0.0
 10
57.6149
 20
7.0897
 30
0.0
  0
SPLINE
  5
A7
330
1F
100
AcDbEntity
  8
Layer 1
 62
     1
100
AcDbSpline
210
0.0
220
0.0
230
1.0
 70
    11
 71
     3
 72
    40
 73
    36
 74
     0
 42
0.000000001
 43
0.0000000001
 40
0.0
 40
0.0
 40
0.0
 40
0.0
 40
0.1
 40
0.1
 40
0.1
 40
0.1
 40
0.2
 40
0.2
 40
0.2
 40
0.2
 40
0.3
 40
0.3
 40
0.3
 40
0.3
 40
0.4
 40
0.4
 40
0.4
 40
0.4
 40
0.5
 40
0.5
 40
0.5
 40
0.5
 40
0.6
 40
0.6
 40
0.6
 40
0.6
 40
0.7
 40
0.7
 40
0.7
 40
0.7
 40
0.8
 40
0.8
 40
0.8
 40
0.8
 40
1.0
 40
1.0
 40
1.0
 40
1.0
 10
60.6026
 20
4.9335
 30
0.0
 10
60.6026
 20
4.9335
 30
0.0
 10
60.6026
 20
9.0144
 30
0.0
 10
60.6026
 20
9.0144
 30
0.0
 10
60.6026
 20
9.0144
 30
0.0
 10
60.6026
 20
9.0144
 30
0.0
 10
61.9601
 20
9.0144
 30
0.0
 10
61.9601
 20
9.0144
 30
0.0
 10
61.9601
 20
9.0144
 30
0.0
 10
62.4841
 20
9.0144
 30
0.0
 10
62.881
 20
8.9382
 30
0.0
 10
63.151
 20
8.7867
 30
0.0
 10
63.151
 20
8.7867
 30
0.0
 10
63.422
 20
8.6353
 30
0.0
 10
63.6336
 20
8.4133
 30
0.0
 10
63.787
 20
8.1226
 30
0.0
 10
63.787
 20
8.1226
 30
0.0
 10
63.9403
 20
7.831
 30
0.0
 10
64.0174
 20
7.4801
 30
0.0
 10
64.0174
 20
7.0708
 30
0.0
 10
64.0174
 20
7.0708
 30
0.0
 10
64.0174
 20
6.6823
 30
0.0
 10
63.9469
 20
6.3267
 30
0.0
 10
63.8067
 20
6.0031
 30
0.0
 10
63.8067
 20
6.0031
 30
0.0
 10
63.6656
 20
5.6795
 30
0.0
 10
63.4521
 20
5.4208
 30
0.0
 10
63.1651
 20
5.2261
 30
0.0
 10
63.1651
 20
5.2261
 30
0.0
 10
62.8782
 20
5.0313
 30
0.0
 10
62.4793
 20
4.9335
 30
0.0
 10
61.9676
 20
4.9335
 30
0.0
 10
61.9676
 20
4.9335
 30
0.0
 10
61.9676
 20
4.9335
 30
0.0
 10
60.6026
 20
4.9335
 30
0.0
 10
60.6026
 20
4.9335
 30
0.0
  0
SPLINE
  5
A8
330
1F
100
AcDbEntity
  8
Layer 1
 62
     1
100
AcDbSpline
210
0.0
220
0.0
230
1.0
 70
    11
 71
     3
 72
    40
 73
    36
 74
     0
 42
0.000000001
 43
0.0000000001
 40
0.0
 40
0.0
 40
0.0
 40
0.0
 40
0.1
 40
0.1
 40
0.1
 40
0.1
 40
0.2
 40
0.2
 40
0.2
 40
0.2
 40
0.3
 40
0.3
 40
0.3
 40
0.3
 40
0.4
 40
0.4
 40
0.4
 40
0.4
 40
0.5
 40
0.5
 40
0.5
 40
0.5
 40
0.6
 40
0.6
 40
0.6
 40
0.6
 40
0.7
 40
0.7
 40
0.7
 40
0.7
 40
0.8
 40
0.8
 40
0.8
 40
0.8
 40
1.0
 40
1.0
 40
1.0
 40
1.0
 10
61.184
 20
5.3681
 30
0.0
 10
61.184
 20
5.3681
 30
0.0
 10
61.9243
 20
5.3681
 30
0.0
 10
61.9243
 20
5.3681
 30
0.0
 10
61.9243
 20
5.3681
 30
0.0
 10
62.31
 20
5.3681
 30
0.0
 10
62.5979
 20
5.4293
 30
0.0
 10
62.7898
 20
5.5516
 30
0.0
 10
62.7898
 20
5.5516
 30
0.0
 10
62.9817
 20
5.6739
 30
0.0
 10
63.1313
 20
5.8667
 30
0.0
 10
63.2395
 20
6.1311
 30
0.0
 10
63.2395
 20
6.1311
 30
0.0
 10
63.3476
 20
6.3954
 30
0.0
 10
63.4022
 20
6.6898
 30
0.0
 10
63.4022
 20
7.0153
 30
0.0
 10
63.4022
 20
7.0153
 30
0.0
 10
63.4022
 20
7.3013
 30
0.0
 10
63.3552
 20
7.5628
 30
0.0
 10
63.262
 20
7.799
 30
0.0
 10
63.262
 20
7.799
 30
0.0
 10
63.168
 20
8.0351
 30
0.0
 10
63.0165
 20
8.2242
 30
0.0
 10
62.8077
 20
8.3662
 30
0.0
 10
62.8077
 20
8.3662
 30
0.0
 10
62.5988
 20
8.5083
 30
0.0
 10
62.2159
 20
8.5798
 30
0.0
 10
61.66
 20
8.5798
 30
0.0
 10
61.66
 20
8.5798
 30
0.0
 10
61.66
 20
8.5798
 30
0.0
 10
61.184
 20
8.5798
 30
0.0
 10
61.184
 20
8.5798
 30
0.0
 10
61.184
 20
8.5798
 30
0.0
 10
61.184
 20
8.5798
 30
0.0
 10
61.184
 20
5.3681
 30
0.0
 10
61.184
 20
5.3681
 30
0.0
  0
ENDSEC
  0
SECTION
  2
OBJECTS
  0
DICTIONARY
  5
C
330
0
100
AcDbDictionary
281
     1
  3
ACAD_DETAILVIEWSTYLE
350
E5
  3
ACAD_GROUP
350
D
  3
ACAD_LAYOUT
350
1A
  3
ACAD_MATERIAL
350
43
  3
ACAD_MLEADERSTYLE
350
6B
  3
ACAD_MLINESTYLE
350
17
  3
ACAD_PLOTSETTINGS
350
19
  3
ACAD_PLOTSTYLENAME
350
E
  3
ACAD_SCALELIST
350
47
  3
ACAD_SECTIONVIEWSTYLE
350
E6
  3
ACAD_TABLESTYLE
350
69
  3
ACAD_VISUALSTYLE
350
2A
  3
ACDB_RECOMPOSE_DATA
350
E2
  3
AcDbVariableDictionary
350
AA
  0
SUN
  5
6D
330
29
100
AcDbSun
 90
        1
290
     0
 63
     7
421
 16777215
 40
1.0
291
     1
 91
  2455826
 92
 54000000
292
     0
 70
     2
 71
   256
280
     1
  0
DICTIONARY
  5
E5
102
{ACAD_REACTORS
330
C
102
}
330
C
100
AcDbDictionary
281
     1
  0
DICTIONARY
  5
D
102
{ACAD_REACTORS
330
C
102
}
330
C
100
AcDbDictionary
281
     1
  0
DICTIONARY
  5
1A
102
{ACAD_REACTORS
330
C
102
}
330
C
100
AcDbDictionary
281
     1
  3
Layout1
350
1E
  3
Layout2
350
26
  3
Model
350
22
  0
DICTIONARY
  5
43
102
{ACAD_REACTORS
330
C
102
}
330
C
100
AcDbDictionary
281
     1
  3
ByBlock
350
45
  3
ByLayer
350
44
  3
Global
350
46
  0
DICTIONARY
  5
6B
102
{ACAD_REACTORS
330
C
102
}
330
C
100
AcDbDictionary
281
     1
  3
Standard
350
6C
  0
DICTIONARY
  5
17
102
{ACAD_REACTORS
330
C
102
}
330
C
100
AcDbDictionary
281
     1
  3
Standard
350
18
  0
DICTIONARY
  5
19
102
{ACAD_REACTORS
330
C
102
}
330
C
100
AcDbDictionary
281
     1
  0
ACDBDICTIONARYWDFLT
  5
E
102
{ACAD_REACTORS
330
C
102
}
330
C
100
AcDbDictionary
281
     1
  3
Normal
350
F
100
AcDbDictionaryWithDefault
340
F
  0
DICTIONARY
  5
47
102
{ACAD_REACTORS
330
C
102
}
330
C
100
AcDbDictionary
281
     1
  3
A0
350
48
  3
A1
350
49
  3
A2
350
4A
  3
A3
350
4B
  3
A4
350
4C
  3
A5
350
4D
  3
A6
350
4E
  3
A7
350
4F
  3
A8
350
50
  3
A9
350
51
  3
B0
350
52
  3
B1
350
53
  3
B2
350
54
  3
B3
350
55
  3
B4
350
56
  3
B5
350
57
  3
B6
350
58
  3
B7
350
59
  3
B8
350
5A
  3
B9
350
5B
  3
C0
350
5C
  3
C1
350
5D
  3
C2
350
5E
  3
C3
350
5F
  3
C4
350
60
  3
C5
350
61
  3
C6
350
62
  3
C7
350
63
  3
C8
350
64
  3
C9
350
65
  3
D0
350
66
  3
D1
350
67
  3
D2
350
68
  0
DICTIONARY
  5
E6
102
{ACAD_REACTORS
330
C
102
}
330
C
100
AcDbDictionary
281
     1
  0
DICTIONARY
  5
69
102
{ACAD_REACTORS
330
C
102
}
330
C
100
AcDbDictionary
281
     1
  3
Standard
350
6A
  0
DICTIONARY
  5
2A
102
{ACAD_REACTORS
330
C
102
}
330
C
100
AcDbDictionary
281
     1
  3
2dWireframe
350
2F
  3
Basic
350
32
  3
Brighten
350
36
  3
ColorChange
350
3A
  3
Conceptual
350
34
  3
Dim
350
35
  3
EdgeColorOff
350
3D
  3
Facepattern
350
39
  3
Flat
350
2B
  3
FlatWithEdges
350
2C
  3
Gouraud
350
2D
  3
GouraudWithEdges
350
2E
  3
Hidden
350
31
  3
JitterOff
350
3B
  3
Linepattern
350
38
  3
OverhangOff
350
3C
  3
Realistic
350
33
  3
Shaded
350
42
  3
Shaded with edges
350
41
  3
Shades of Gray
350
3E
  3
Sketchy
350
3F
  3
Thicken
350
37
  3
Wireframe
350
30
  3
X-Ray
350
40
  0
XRECORD
  5
E2
102
{ACAD_REACTORS
330
C
102
}
330
C
100
AcDbXrecord
280
     1
 90
        1
330
6A
  0
DICTIONARY
  5
AA
102
{ACAD_REACTORS
330
C
102
}
330
C
100
AcDbDictionary
281
     1
  3
CANNOSCALE
350
AB
  3
CMLEADERSTYLE
350
E4
  3
CTABLESTYLE
350
E3
  3
XCLIPFRAME
350
AC
  0
LAYOUT
  5
1E
102
{ACAD_REACTORS
330
1A
102
}
330
1A
100
AcDbPlotSettings
  1

  2
none_device
  4

  6

 40
0.0
 41
0.0
 42
0.0
 43
0.0
 44
0.0
 45
0.0
 46
0.0
 47
0.0
 48
0.0
 49
0.0
140
0.0
141
0.0
142
1.0
143
1.0
 70
   688
 72
     0
 73
     0
 74
     5
  7

 75
    16
 76
     0
 77
     2
 78
   300
147
1.0
148
0.0
149
0.0
100
AcDbLayout
  1
Layout1
 70
     1
 71
     1
 10
0.0
 20
0.0
 11
12.0
 21
9.0
 12
0.0
 22
0.0
 32
0.0
 14
1.000000000000000E+20
 24
1.000000000000000E+20
 34
1.000000000000000E+20
 15
-1.000000000000000E+20
 25
-1.000000000000000E+20
 35
-1.000000000000000E+20
146
0.0
 13
0.0
 23
0.0
 33
0.0
 16
1.0
 26
0.0
 36
0.0
 17
0.0
 27
1.0
 37
0.0
 76
     0
330
1B
  0
LAYOUT
  5
26
102
{ACAD_REACTORS
330
1A
102
}
330
1A
100
AcDbPlotSettings
  1

  2
none_device
  4

  6

 40
0.0
 41
0.0
 42
0.0
 43
0.0
 44
0.0
 45
0.0
 46
0.0
 47
0.0
 48
0.0
 49
0.0
140
0.0
141
0.0
142
1.0
143
1.0
 70
   688
 72
     0
 73
     0
 74
     5
  7

 75
    16
 76
     0
 77
     2
 78
   300
147
1.0
148
0.0
149
0.0
100
AcDbLayout
  1
Layout2
 70
     1
 71
     2
 10
0.0
 20
0.0
 11
0.0
 21
0.0
 12
0.0
 22
0.0
 32
0.0
 14
0.0
 24
0.0
 34
0.0
 15
0.0
 25
0.0
 35
0.0
146
0.0
 13
0.0
 23
0.0
 33
0.0
 16
1.0
 26
0.0
 36
0.0
 17
0.0
 27
1.0
 37
0.0
 76
     0
330
23
  0
LAYOUT
  5
22
102
{ACAD_REACTORS
330
1A
102
}
330
1A
100
AcDbPlotSettings
  1

  2
none_device
  4
Letter_(8.50_x_11.00_Inches)
  6

 40
6.35
 41
6.35
 42
6.35000508
 43
6.35000508
 44
215.9
 45
279.4
 46
0.0
 47
0.0
 48
0.0
 49
0.0
140
0.0
141
0.0
142
1.0
143
1.0
 70
  1712
 72
     0
 73
     0
 74
     0
  7

 75
     0
 76
     0
 77
     2
 78
   300
147
1.0
148
0.0
149
0.0
100
AcDbLayout
  1
Model
 70
     1
 71
     0
 10
0.0
 20
0.0
 11
12.0
 21
9.0
 12
0.0
 22
0.0
 32
0.0
 14
-57.105
 24
-8.2631
 34
0.0
 15
83.095
 25
99.8022
 35
0.0
146
0.0
 13
0.0
 23
0.0
 33
0.0
 16
1.0
 26
0.0
 36
0.0
 17
0.0
 27
1.0
 37
0.0
 76
     0
330
1F
331
29
  0
MATERIAL
  5
45
102
{ACAD_REACTORS
330
43
102
}
330
43
100
AcDbMaterial
  1
ByBlock
 72
     1
 94
      127
  0
MATERIAL
  5
44
102
{ACAD_REACTORS
330
43
102
}
330
43
100
AcDbMaterial
  1
ByLayer
 72
     1
 94
      127
  0
MATERIAL
  5
46
102
{ACAD_REACTORS
330
43
102
}
330
43
100
AcDbMaterial
  1
Global
 72
     1
 94
      127
  0
MLEADERSTYLE
  5
6C
102
{ACAD_REACTORS
330
6B
102
}
102
{ACAD_XDICTIONARY
360
E0
102
}
330
6B
100
AcDbMLeaderStyle
170
     2
171
     1
172
     0
 90
        2
 40
0.0
 41
0.0
173
     1
 91
-1056964608
340
14
 92
       -2
290
     1
 42
0.09
291
     1
 43
0.36
  3
Standard
341
0
 44
0.18
300

342
11
174
     1
178
     6
175
     1
176
     0
 93
-1056964608
 45
0.18
292
     0
297
     0
 46
0.18
343
0
 94
-1056964608
 47
1.0
 49
1.0
140
1.0
293
     1
141
0.0
294
     1
177
     0
142
1.0
295
     0
296
     0
143
0.125
1001
ACAD_MLEADERVER
1070
     2
  0
MLINESTYLE
  5
18
102
{ACAD_REACTORS
330
17
102
}
330
17
100
AcDbMlineStyle
  2
Standard
 70
     0
  3

 62
   256
 51
90.0
 52
90.0
 71
     2
 49
0.5
 62
   256
  6
BYLAYER
 49
-0.5
 62
   256
  6
BYLAYER
  0
ACDBPLACEHOLDER
  5
F
102
{ACAD_REACTORS
330
E
102
}
330
E
  0
SCALE
  5
48
102
{ACAD_REACTORS
330
47
102
}
330
47
100
AcDbScale
 70
     0
300
1:1
140
1.0
141
1.0
290
     1
  0
SCALE
  5
49
102
{ACAD_REACTORS
330
47
102
}
330
47
100
AcDbScale
 70
     0
300
1:2
140
1.0
141
2.0
290
     0
  0
SCALE
  5
4A
102
{ACAD_REACTORS
330
47
102
}
330
47
100
AcDbScale
 70
     0
300
1:4
140
1.0
141
4.0
290
     0
  0
SCALE
  5
4B
102
{ACAD_REACTORS
330
47
102
}
330
47
100
AcDbScale
 70
     0
300
1:5
140
1.0
141
5.0
290
     0
  0
SCALE
  5
4C
102
{ACAD_REACTORS
330
47
102
}
330
47
100
AcDbScale
 70
     0
300
1:8
140
1.0
141
8.0
290
     0
  0
SCALE
  5
4D
102
{ACAD_REACTORS
330
47
102
}
330
47
100
AcDbScale
 70
     0
300
1:10
140
1.0
141
10.0
290
     0
  0
SCALE
  5
4E
102
{ACAD_REACTORS
330
47
102
}
330
47
100
AcDbScale
 70
     0
300
1:16
140
1.0
141
16.0
290
     0
  0
SCALE
  5
4F
102
{ACAD_REACTORS
330
47
102
}
330
47
100
AcDbScale
 70
     0
300
1:20
140
1.0
141
20.0
290
     0
  0
SCALE
  5
50
102
{ACAD_REACTORS
330
47
102
}
330
47
100
AcDbScale
 70
     0
300
1:30
140
1.0
141
30.0
290
     0
  0
SCALE
  5
51
102
{ACAD_REACTORS
330
47
102
}
330
47
100
AcDbScale
 70
     0
300
1:40
140
1.0
141
40.0
290
     0
  0
SCALE
  5
52
102
{ACAD_REACTORS
330
47
102
}
330
47
100
AcDbScale
 70
     0
300
1:50
140
1.0
141
50.0
290
     0
  0
SCALE
  5
53
102
{ACAD_REACTORS
330
47
102
}
330
47
100
AcDbScale
 70
     0
300
1:100
140
1.0
141
100.0
290
     0
  0
SCALE
  5
54
102
{ACAD_REACTORS
330
47
102
}
330
47
100
AcDbScale
 70
     0
300
2:1
140
2.0
141
1.0
290
     0
  0
SCALE
  5
55
102
{ACAD_REACTORS
330
47
102
}
330
47
100
AcDbScale
 70
     0
300
4:1
140
4.0
141
1.0
290
     0
  0
SCALE
  5
56
102
{ACAD_REACTORS
330
47
102
}
330
47
100
AcDbScale
 70
     0
300
8:1
140
8.0
141
1.0
290
     0
  0
SCALE
  5
57
102
{ACAD_REACTORS
330
47
102
}
330
47
100
AcDbScale
 70
     0
300
10:1
140
10.0
141
1.0
290
     0
  0
SCALE
  5
58
102
{ACAD_REACTORS
330
47
102
}
330
47
100
AcDbScale
 70
     0
300
100:1
140
100.0
141
1.0
290
     0
  0
SCALE
  5
59
102
{ACAD_REACTORS
330
47
102
}
330
47
100
AcDbScale
 70
     0
300
1/128" = 1'-0"
140
0.0078125
141
12.0
290
     0
  0
SCALE
  5
5A
102
{ACAD_REACTORS
330
47
102
}
330
47
100
AcDbScale
 70
     0
300
1/64" = 1'-0"
140
0.015625
141
12.0
290
     0
  0
SCALE
  5
5B
102
{ACAD_REACTORS
330
47
102
}
330
47
100
AcDbScale
 70
     0
300
1/32" = 1'-0"
140
0.03125
141
12.0
290
     0
  0
SCALE
  5
5C
102
{ACAD_REACTORS
330
47
102
}
330
47
100
AcDbScale
 70
     0
300
1/16" = 1'-0"
140
0.0625
141
12.0
290
     0
  0
SCALE
  5
5D
102
{ACAD_REACTORS
330
47
102
}
330
47
100
AcDbScale
 70
     0
300
3/32" = 1'-0"
140
0.09375
141
12.0
290
     0
  0
SCALE
  5
5E
102
{ACAD_REACTORS
330
47
102
}
330
47
100
AcDbScale
 70
     0
300
1/8" = 1'-0"
140
0.125
141
12.0
290
     0
  0
SCALE
  5
5F
102
{ACAD_REACTORS
330
47
102
}
330
47
100
AcDbScale
 70
     0
300
3/16" = 1'-0"
140
0.1875
141
12.0
290
     0
  0
SCALE
  5
60
102
{ACAD_REACTORS
330
47
102
}
330
47
100
AcDbScale
 70
     0
300
1/4" = 1'-0"
140
0.25
141
12.0
290
     0
  0
SCALE
  5
61
102
{ACAD_REACTORS
330
47
102
}
330
47
100
AcDbScale
 70
     0
300
3/8" = 1'-0"
140
0.375
141
12.0
290
     0
  0
SCALE
  5
62
102
{ACAD_REACTORS
330
47
102
}
330
47
100
AcDbScale
 70
     0
300
1/2" = 1'-0"
140
0.5
141
12.0
290
     0
  0
SCALE
  5
63
102
{ACAD_REACTORS
330
47
102
}
330
47
100
AcDbScale
 70
     0
300
3/4" = 1'-0"
140
0.75
141
12.0
290
     0
  0
SCALE
  5
64
102
{ACAD_REACTORS
330
47
102
}
330
47
100
AcDbScale
 70
     0
300
1" = 1'-0"
140
1.0
141
12.0
290
     0
  0
SCALE
  5
65
102
{ACAD_REACTORS
330
47
102
}
330
47
100
AcDbScale
 70
     0
300
1-1/2" = 1'-0"
140
1.5
141
12.0
290
     0
  0
SCALE
  5
66
102
{ACAD_REACTORS
330
47
102
}
330
47
100
AcDbScale
 70
     0
300
3" = 1'-0"
140
3.0
141
12.0
290
     0
  0
SCALE
  5
67
102
{ACAD_REACTORS
330
47
102
}
330
47
100
AcDbScale
 70
     0
300
6" = 1'-0"
140
6.0
141
12.0
290
     0
  0
SCALE
  5
68
102
{ACAD_REACTORS
330
47
102
}
330
47
100
AcDbScale
 70
     0
300
1'-0" = 1'-0"
140
12.0
141
12.0
290
     0
  0
TABLESTYLE
  5
6A
102
{ACAD_REACTORS
330
69
102
}
102
{ACAD_XDICTIONARY
360
DD
102
}
330
69
100
AcDbTableStyle
  3
Standard
 70
     0
 71
     0
 40
0.06
 41
0.06
280
     0
281
     0
  7
Standard
140
0.18
170
     2
 62
     0
 63
   257
283
     0
 90
        4
 91
        0
  1

274
    -2
284
     1
 64
     0
275
    -2
285
     1
 65
     0
276
    -2
286
     1
 66
     0
277
    -2
287
     1
 67
     0
278
    -2
288
     1
 68
     0
279
    -2
289
     1
 69
     0
  7
Standard
140
0.25
170
     5
 62
     0
 63
   257
283
     0
 90
        4
 91
        0
  1

274
    -2
284
     1
 64
     0
275
    -2
285
     1
 65
     0
276
    -2
286
     1
 66
     0
277
    -2
287
     1
 67
     0
278
    -2
288
     1
 68
     0
279
    -2
289
     1
 69
     0
  7
Standard
140
0.18
170
     5
 62
     0
 63
   257
283
     0
 90
        4
 91
        0
  1

274
    -2
284
     1
 64
     0
275
    -2
285
     1
 65
     0
276
    -2
286
     1
 66
     0
277
    -2
287
     1
 67
     0
278
    -2
288
     1
 68
     0
279
    -2
289
     1
 69
     0
  0
VISUALSTYLE
  5
2F
102
{ACAD_REACTORS
330
2A
102
}
102
{ACAD_XDICTIONARY
360
B5
102
}
330
2A
100
AcDbVisualStyle
  2
2dWireframe
 70
     4
 71
     0
 72
     2
 73
     0
 90
        0
 40
0.6
 41
30.0
 62
     5
 63
     7
421
 16777215
 74
     1
 91
        4
 64
     7
 65
   257
 75
     1
175
     1
 42
1.0
 92
        0
 66
   257
 43
1.0
 76
     1
 77
     6
 78
     2
 67
     7
 79
     5
170
     0
171
     0
290
     0
174
     0
 93
        1
 44
0.0
173
     0
291
     0
 45
0.0
  0
VISUALSTYLE
  5
32
102
{ACAD_REACTORS
330
2A
102
}
102
{ACAD_XDICTIONARY
360
BB
102
}
330
2A
100
AcDbVisualStyle
  2
Basic
 70
     7
 71
     1
 72
     0
 73
     1
 90
        0
 40
0.6
 41
30.0
 62
     5
 63
     7
421
 16777215
 74
     0
 91
        4
 64
     7
 65
   257
 75
     1
175
     1
 42
1.0
 92
        8
 66
     7
 43
1.0
 76
     1
 77
     6
 78
     2
 67
     7
 79
     5
170
     0
171
     0
290
     0
174
     0
 93
        1
 44
0.0
173
     0
291
     1
 45
0.0
  0
VISUALSTYLE
  5
36
102
{ACAD_REACTORS
330
2A
102
}
102
{ACAD_XDICTIONARY
360
C3
102
}
330
2A
100
AcDbVisualStyle
  2
Brighten
 70
    12
 71
     2
 72
     2
 73
     0
 90
        0
 40
0.6
 41
30.0
 62
     5
 63
     7
421
 16777215
 74
     1
 91
        4
 64
     7
 65
   257
 75
     1
175
     1
 42
1.0
 92
        8
 66
     7
 43
1.0
 76
     1
 77
     6
 78
     2
 67
     7
 79
     5
170
     0
171
     0
290
     0
174
     0
 93
        1
 44
50.0
173
     0
291
     1
 45
0.0
  0
VISUALSTYLE
  5
3A
102
{ACAD_REACTORS
330
2A
102
}
102
{ACAD_XDICTIONARY
360
CB
102
}
330
2A
100
AcDbVisualStyle
  2
ColorChange
 70
    16
 71
     2
 72
     2
 73
     3
 90
        0
 40
0.6
 41
30.0
 62
     5
 63
     8
421
  8421504
 74
     1
 91
        4
 64
     7
 65
   257
 75
     1
175
     1
 42
1.0
 92
        8
 66
     8
424
  8421504
 43
1.0
 76
     1
 77
     6
 78
     2
 67
     7
 79
     5
170
     0
171
     0
290
     0
174
     0
 93
        1
 44
0.0
173
     0
291
     1
 45
0.0
  0
VISUALSTYLE
  5
34
102
{ACAD_REACTORS
330
2A
102
}
102
{ACAD_XDICTIONARY
360
BF
102
}
330
2A
100
AcDbVisualStyle
  2
Conceptual
 70
     9
 71
     3
 72
     2
 73
     0
 90
        0
 40
0.6
 41
30.0
 62
     5
 63
     7
421
 16777215
 74
     2
 91
        2
 64
     7
 65
   257
 75
     1
175
     1
 42
179.0
 92
        8
 66
     7
 43
1.0
 76
     1
 77
     6
 78
     2
 67
     7
 79
     3
170
     0
171
     0
290
     0
174
     0
 93
        1
 44
0.0
173
     0
291
     0
 45
0.0
  0
VISUALSTYLE
  5
35
102
{ACAD_REACTORS
330
2A
102
}
102
{ACAD_XDICTIONARY
360
C1
102
}
330
2A
100
AcDbVisualStyle
  2
Dim
 70
    11
 71
     2
 72
     2
 73
     0
 90
        0
 40
0.6
 41
30.0
 62
     5
 63
     7
421
 16777215
 74
     1
 91
        4
 64
     7
 65
   257
 75
     1
175
     1
 42
1.0
 92
        8
 66
     7
 43
1.0
 76
     1
 77
     6
 78
     2
 67
     7
 79
     5
170
     0
171
     0
290
     0
174
     0
 93
        1
 44
-50.0
173
     0
291
     1
 45
0.0
  0
VISUALSTYLE
  5
3D
102
{ACAD_REACTORS
330
2A
102
}
102
{ACAD_XDICTIONARY
360
D1
102
}
330
2A
100
AcDbVisualStyle
  2
EdgeColorOff
 70
    22
 71
     2
 72
     2
 73
     0
 90
        0
 40
0.6
 41
30.0
 62
     5
 63
     7
421
 16777215
 74
     1
 91
        4
 64
     7
 65
   257
 75
     1
175
     1
 42
1.0
 92
        8
 66
     7
 43
1.0
 76
     1
 77
     6
 78
     2
 67
     7
 79
     5
170
     0
171
     0
290
     0
174
     0
 93
        1
 44
0.0
173
     0
291
     1
 45
0.0
  0
VISUALSTYLE
  5
39
102
{ACAD_REACTORS
330
2A
102
}
102
{ACAD_XDICTIONARY
360
C9
102
}
330
2A
100
AcDbVisualStyle
  2
Facepattern
 70
    15
 71
     2
 72
     2
 73
     0
 90
        0
 40
0.6
 41
30.0
 62
     5
 63
     7
421
 16777215
 74
     1
 91
        4
 64
     7
 65
   257
 75
     1
175
     1
 42
1.0
 92
        8
 66
     7
 43
1.0
 76
     1
 77
     6
 78
     2
 67
     7
 79
     5
170
     0
171
     0
290
     0
174
     0
 93
        1
 44
0.0
173
     0
291
     1
 45
0.0
  0
VISUALSTYLE
  5
2B
102
{ACAD_REACTORS
330
2A
102
}
102
{ACAD_XDICTIONARY
360
AD
102
}
330
2A
100
AcDbVisualStyle
  2
Flat
 70
     0
 71
     2
 72
     1
 73
     1
 90
        2
 40
0.6
 41
30.0
 62
     5
 63
     7
421
 16777215
 74
     0
 91
        0
 64
     7
 65
   257
 75
     1
175
     1
 42
1.0
 92
        8
 66
     7
 43
1.0
 76
     1
 77
     6
 78
     2
 67
     7
 79
     5
170
     0
171
     0
290
     0
174
     0
 93
       13
 44
0.0
173
     0
291
     1
 45
0.0
  0
VISUALSTYLE
  5
2C
102
{ACAD_REACTORS
330
2A
102
}
102
{ACAD_XDICTIONARY
360
AF
102
}
330
2A
100
AcDbVisualStyle
  2
FlatWithEdges
 70
     1
 71
     2
 72
     1
 73
     1
 90
        2
 40
0.6
 41
30.0
 62
     5
 63
     7
421
 16777215
 74
     1
 91
        0
 64
     7
 65
   257
 75
     1
175
     1
 42
1.0
 92
        0
 66
   257
 43
1.0
 76
     1
 77
     6
 78
     2
 67
     7
 79
     5
170
     0
171
     0
290
     0
174
     0
 93
       13
 44
0.0
173
     0
291
     1
 45
0.0
  0
VISUALSTYLE
  5
2D
102
{ACAD_REACTORS
330
2A
102
}
102
{ACAD_XDICTIONARY
360
B1
102
}
330
2A
100
AcDbVisualStyle
  2
Gouraud
 70
     2
 71
     2
 72
     2
 73
     1
 90
        2
 40
0.6
 41
30.0
 62
     5
 63
     7
421
 16777215
 74
     0
 91
        0
 64
     7
 65
   257
 75
     1
175
     1
 42
1.0
 92
        0
 66
     7
 43
1.0
 76
     1
 77
     6
 78
     2
 67
     7
 79
     5
170
     0
171
     0
290
     0
174
     0
 93
       13
 44
0.0
173
     0
291
     1
 45
0.0
  0
VISUALSTYLE
  5
2E
102
{ACAD_REACTORS
330
2A
102
}
102
{ACAD_XDICTIONARY
360
B3
102
}
330
2A
100
AcDbVisualStyle
  2
GouraudWithEdges
 70
     3
 71
     2
 72
     2
 73
     1
 90
        2
 40
0.6
 41
30.0
 62
     5
 63
     7
421
 16777215
 74
     1
 91
        0
 64
     7
 65
   257
 75
     1
175
     1
 42
1.0
 92
        0
 66
   257
 43
1.0
 76
     1
 77
     6
 78
     2
 67
     7
 79
     5
170
     0
171
     0
290
     0
174
     0
 93
       13
 44
0.0
173
     0
291
     1
 45
0.0
  0
VISUALSTYLE
  5
31
102
{ACAD_REACTORS
330
2A
102
}
102
{ACAD_XDICTIONARY
360
B9
102
}
330
2A
100
AcDbVisualStyle
  2
Hidden
 70
     6
 71
     1
 72
     2
 73
     2
 90
        0
 40
0.6
 41
30.0
 62
     5
 63
     7
421
 16777215
 74
     2
 91
        2
 64
     7
 65
   257
 75
     2
175
     1
 42
40.0
 92
        0
 66
   257
 43
1.0
 76
     1
 77
     6
 78
     2
 67
     7
 79
     3
170
     0
171
     0
290
     0
174
     0
 93
        1
 44
0.0
173
     0
291
     0
 45
0.0
  0
VISUALSTYLE
  5
3B
102
{ACAD_REACTORS
330
2A
102
}
102
{ACAD_XDICTIONARY
360
CD
102
}
330
2A
100
AcDbVisualStyle
  2
JitterOff
 70
    20
 71
     2
 72
     2
 73
     0
 90
        0
 40
0.6
 41
30.0
 62
     5
 63
     7
421
 16777215
 74
     1
 91
        4
 64
     7
 65
   257
 75
     1
175
     1
 42
1.0
 92
       10
 66
     7
 43
1.0
 76
     1
 77
     6
 78
     2
 67
     7
 79
     5
170
     0
171
     0
290
     0
174
     0
 93
        1
 44
0.0
173
     0
291
     1
 45
0.0
  0
VISUALSTYLE
  5
38
102
{ACAD_REACTORS
330
2A
102
}
102
{ACAD_XDICTIONARY
360
C7
102
}
330
2A
100
AcDbVisualStyle
  2
Linepattern
 70
    14
 71
     2
 72
     2
 73
     0
 90
        0
 40
0.6
 41
30.0
 62
     5
 63
     7
421
 16777215
 74
     1
 91
        4
 64
     7
 65
   257
 75
     7
175
     7
 42
1.0
 92
        8
 66
     7
 43
1.0
 76
     1
 77
     6
 78
     2
 67
     7
 79
     5
170
     0
171
     0
290
     0
174
     0
 93
        1
 44
0.0
173
     0
291
     1
 45
0.0
  0
VISUALSTYLE
  5
3C
102
{ACAD_REACTORS
330
2A
102
}
102
{ACAD_XDICTIONARY
360
CF
102
}
330
2A
100
AcDbVisualStyle
  2
OverhangOff
 70
    21
 71
     2
 72
     2
 73
     0
 90
        0
 40
0.6
 41
30.0
 62
     5
 63
     7
421
 16777215
 74
     1
 91
        4
 64
     7
 65
   257
 75
     1
175
     1
 42
1.0
 92
        9
 66
     7
 43
1.0
 76
     1
 77
     6
 78
     2
 67
     7
 79
     5
170
     0
171
     0
290
     0
174
     0
 93
        1
 44
0.0
173
     0
291
     1
 45
0.0
  0
VISUALSTYLE
  5
33
102
{ACAD_REACTORS
330
2A
102
}
102
{ACAD_XDICTIONARY
360
BD
102
}
330
2A
100
AcDbVisualStyle
  2
Realistic
 70
     8
 71
     2
 72
     3
 73
     0
 90
        2
 40
0.6
 41
30.0
 62
     5
 63
     7
421
 16777215
 74
     0
 91
        0
 64
     7
 65
   257
 75
     1
175
     1
 42
1.0
 92
        8
 66
   257
 43
1.0
 76
     1
 77
     6
 78
     2
 67
     7
 79
     3
170
     0
171
     0
290
     0
174
     0
 93
       13
 44
0.0
173
     0
291
     0
 45
0.0
  0
VISUALSTYLE
  5
42
102
{ACAD_REACTORS
330
2A
102
}
102
{ACAD_XDICTIONARY
360
DB
102
}
330
2A
100
AcDbVisualStyle
  2
Shaded
 70
    27
 71
     2
 72
     2
 73
     1
 90
        2
 40
0.6
 41
30.0
 62
     5
 63
     7
421
 16777215
 74
     0
 91
        4
 64
     7
 65
   257
 75
     1
175
     1
 42
1.0
 92
        8
 66
   257
 43
1.0
 76
     1
 77
     6
 78
     2
 67
     8
425
  7895160
 79
     3
170
     0
171
     0
290
     0
174
     0
 93
        5
 44
0.0
173
     0
291
     0
 45
0.0
  0
VISUALSTYLE
  5
41
102
{ACAD_REACTORS
330
2A
102
}
102
{ACAD_XDICTIONARY
360
D9
102
}
330
2A
100
AcDbVisualStyle
  2
Shaded with edges
 70
    26
 71
     2
 72
     2
 73
     1
 90
        2
 40
0.6
 41
30.0
 62
     5
 63
     7
421
 16777215
 74
     1
 91
       10
 64
     7
 65
   257
 75
     2
175
     1
 42
1.0
 92
        8
 66
   257
 43
1.0
 76
     1
 77
     6
 78
     2
 67
     7
 79
     3
170
     0
171
     0
290
     0
174
     0
 93
        5
 44
0.0
173
     0
291
     0
 45
0.0
  0
VISUALSTYLE
  5
3E
102
{ACAD_REACTORS
330
2A
102
}
102
{ACAD_XDICTIONARY
360
D3
102
}
330
2A
100
AcDbVisualStyle
  2
Shades of Gray
 70
    23
 71
     2
 72
     2
 73
     3
 90
        0
 40
0.6
 41
30.0
 62
     5
 63
     7
421
 16777215
 74
     2
 91
        2
 64
     7
 65
     7
 75
     1
175
     1
 42
40.0
 92
        8
 66
     7
 43
1.0
 76
     1
 77
     6
 78
     2
 67
     7
 79
     3
170
     0
171
     0
290
     0
174
     0
 93
        1
 44
0.0
173
     0
291
     0
 45
0.0
  0
VISUALSTYLE
  5
3F
102
{ACAD_REACTORS
330
2A
102
}
102
{ACAD_XDICTIONARY
360
D5
102
}
330
2A
100
AcDbVisualStyle
  2
Sketchy
 70
    24
 71
     1
 72
     2
 73
     2
 90
        0
 40
0.6
 41
30.0
 62
     5
 63
     7
421
 16777215
 74
     2
 91
        2
 64
     7
 65
     7
 75
     1
175
     1
 42
40.0
 92
       11
 66
     7
 43
1.0
 76
     1
 77
     6
 78
     2
 67
     7
 79
     6
170
     0
171
     0
290
     0
174
     0
 93
        1
 44
0.0
173
     0
291
     0
 45
0.0
  0
VISUALSTYLE
  5
37
102
{ACAD_REACTORS
330
2A
102
}
102
{ACAD_XDICTIONARY
360
C5
102
}
330
2A
100
AcDbVisualStyle
  2
Thicken
 70
    13
 71
     2
 72
     2
 73
     0
 90
        0
 40
0.6
 41
30.0
 62
     5
 63
     7
421
 16777215
 74
     1
 91
        4
 64
     7
 65
   257
 75
     1
175
     1
 42
1.0
 92
       12
 66
     7
 43
1.0
 76
     1
 77
     6
 78
     2
 67
     7
 79
     5
170
     0
171
     0
290
     0
174
     0
 93
        1
 44
0.0
173
     0
291
     1
 45
0.0
  0
VISUALSTYLE
  5
30
102
{ACAD_REACTORS
330
2A
102
}
102
{ACAD_XDICTIONARY
360
B7
102
}
330
2A
100
AcDbVisualStyle
  2
Wireframe
 70
     5
 71
     0
 72
     2
 73
     0
 90
        0
 40
0.6
 41
30.0
 62
     5
 63
     7
421
 16777215
 74
     1
 91
        4
 64
     7
 65
   257
 75
     1
175
     1
 42
1.0
 92
        0
 66
   257
 43
1.0
 76
     1
 77
     6
 78
     2
 67
     7
 79
     3
170
     0
171
     0
290
     0
174
     0
 93
        1
 44
0.0
173
     0
291
     0
 45
0.0
  0
VISUALSTYLE
  5
40
102
{ACAD_REACTORS
330
2A
102
}
102
{ACAD_XDICTIONARY
360
D7
102
}
330
2A
100
AcDbVisualStyle
  2
X-Ray
 70
    25
 71
     2
 72
     2
 73
     1
 90
        1
 40
0.5
 41
30.0
 62
     5
 63
     7
421
 16777215
 74
     1
 91
        0
 64
     7
 65
   257
 75
     1
175
     1
 42
1.0
 92
        8
 66
     7
 43
1.0
 76
     1
 77
     6
 78
     2
 67
     7
 79
     3
170
     0
171
     0
290
     0
174
     0
 93
       13
 44
0.0
173
     0
291
     0
 45
0.0
  0
DICTIONARYVAR
  5
AB
102
{ACAD_REACTORS
330
AA
102
}
330
AA
100
DictionaryVariables
280
     0
  1
1:1
  0
DICTIONARYVAR
  5
E4
102
{ACAD_REACTORS
330
AA
102
}
330
AA
100
DictionaryVariables
280
     0
  1
Standard
  0
DICTIONARYVAR
  5
E3
102
{ACAD_REACTORS
330
AA
102
}
330
AA
100
DictionaryVariables
280
     0
  1
Standard
  0
DICTIONARYVAR
  5
AC
102
{ACAD_REACTORS
330
AA
102
}
330
AA
100
DictionaryVariables
280
     0
  1
2
  0
DICTIONARY
  5
E0
330
6C
100
AcDbDictionary
280
     1
281
     1
  3
ACAD_XREC_ROUNDTRIP
360
E1
  0
DICTIONARY
  5
DD
330
6A
100
AcDbDictionary
280
     1
281
     1
  3
ACAD_ROUNDTRIP_2008_TABLESTYLE_CELLSTYLEMAP
360
DE
  0
DICTIONARY
  5
B5
330
2F
100
AcDbDictionary
280
     1
281
     1
  3
ACAD_XREC_ROUNDTRIP
360
B6
  0
DICTIONARY
  5
BB
330
32
100
AcDbDictionary
280
     1
281
     1
  3
ACAD_XREC_ROUNDTRIP
360
BC
  0
DICTIONARY
  5
C3
330
36
100
AcDbDictionary
280
     1
281
     1
  3
ACAD_XREC_ROUNDTRIP
360
C4
  0
DICTIONARY
  5
CB
330
3A
100
AcDbDictionary
280
     1
281
     1
  3
ACAD_XREC_ROUNDTRIP
360
CC
  0
DICTIONARY
  5
BF
330
34
100
AcDbDictionary
280
     1
281
     1
  3
ACAD_XREC_ROUNDTRIP
360
C0
  0
DICTIONARY
  5
C1
330
35
100
AcDbDictionary
280
     1
281
     1
  3
ACAD_XREC_ROUNDTRIP
360
C2
  0
DICTIONARY
  5
D1
330
3D
100
AcDbDictionary
280
     1
281
     1
  3
ACAD_XREC_ROUNDTRIP
360
D2
  0
DICTIONARY
  5
C9
330
39
100
AcDbDictionary
280
     1
281
     1
  3
ACAD_XREC_ROUNDTRIP
360
CA
  0
DICTIONARY
  5
AD
330
2B
100
AcDbDictionary
280
     1
281
     1
  3
ACAD_XREC_ROUNDTRIP
360
AE
  0
DICTIONARY
  5
AF
330
2C
100
AcDbDictionary
280
     1
281
     1
  3
ACAD_XREC_ROUNDTRIP
360
B0
  0
DICTIONARY
  5
B1
330
2D
100
AcDbDictionary
280
     1
281
     1
  3
ACAD_XREC_ROUNDTRIP
360
B2
  0
DICTIONARY
  5
B3
330
2E
100
AcDbDictionary
280
     1
281
     1
  3
ACAD_XREC_ROUNDTRIP
360
B4
  0
DICTIONARY
  5
B9
330
31
100
AcDbDictionary
280
     1
281
     1
  3
ACAD_XREC_ROUNDTRIP
360
BA
  0
DICTIONARY
  5
CD
330
3B
100
AcDbDictionary
280
     1
281
     1
  3
ACAD_XREC_ROUNDTRIP
360
CE
  0
DICTIONARY
  5
C7
330
38
100
AcDbDictionary
280
     1
281
     1
  3
ACAD_XREC_ROUNDTRIP
360
C8
  0
DICTIONARY
  5
CF
330
3C
100
AcDbDictionary
280
     1
281
     1
  3
ACAD_XREC_ROUNDTRIP
360
D0
  0
DICTIONARY
  5
BD
330
33
100
AcDbDictionary
280
     1
281
     1
  3
ACAD_XREC_ROUNDTRIP
360
BE
  0
DICTIONARY
  5
DB
330
42
100
AcDbDictionary
280
     1
281
     1
  3
ACAD_XREC_ROUNDTRIP
360
DC
  0
DICTIONARY
  5
D9
330
41
100
AcDbDictionary
280
     1
281
     1
  3
ACAD_XREC_ROUNDTRIP
360
DA
  0
DICTIONARY
  5
D3
330
3E
100
AcDbDictionary
280
     1
281
     1
  3
ACAD_XREC_ROUNDTRIP
360
D4
  0
DICTIONARY
  5
D5
330
3F
100
AcDbDictionary
280
     1
281
     1
  3
ACAD_XREC_ROUNDTRIP
360
D6
  0
DICTIONARY
  5
C5
330
37
100
AcDbDictionary
280
     1
281
     1
  3
ACAD_XREC_ROUNDTRIP
360
C6
  0
DICTIONARY
  5
B7
330
30
100
AcDbDictionary
280
     1
281
     1
  3
ACAD_XREC_ROUNDTRIP
360
B8
  0
DICTIONARY
  5
D7
330
40
100
AcDbDictionary
280
     1
281
     1
  3
ACAD_XREC_ROUNDTRIP
360
D8
  0
XRECORD
  5
E1
102
{ACAD_REACTORS
330
E0
102
}
330
E0
100
AcDbXrecord
280
     1
102
ACAD_ROUNDTRIP_2010_MLEADER_STYLE
  0
CELLSTYLEMAP
  5
DE
102
{ACAD_REACTORS
330
DD
102
}
330
DD
100
AcDbCellStyleMap
 90
        3
300
CELLSTYLE
  1
TABLEFORMAT_BEGIN
 90
        5
170
     1
 91
        0
 92
    32768
 62
   257
 93
        1
300
CONTENTFORMAT
  1
CONTENTFORMAT_BEGIN
 90
        0
 91
        0
 92
        4
 93
        0
300

 40
0.0
140
1.0
 94
        5
 62
     0
340
11
144
0.25
309
CONTENTFORMAT_END
171
     1
301
MARGIN
  1
CELLMARGIN_BEGIN
 40
0.06
 40
0.06
 40
0.06
 40
0.06
 40
0.06
 40
0.06
309
CELLMARGIN_END
 94
        6
 95
        1
302
GRIDFORMAT
  1
GRIDFORMAT_BEGIN
 90
        0
 91
        1
 62
     0
 92
       -2
340
14
 93
        0
 40
0.045
309
GRIDFORMAT_END
 95
        2
302
GRIDFORMAT
  1
GRIDFORMAT_BEGIN
 90
        0
 91
        1
 62
     0
 92
       -2
340
14
 93
        0
 40
0.045
309
GRIDFORMAT_END
 95
        4
302
GRIDFORMAT
  1
GRIDFORMAT_BEGIN
 90
        0
 91
        1
 62
     0
 92
       -2
340
14
 93
        0
 40
0.045
309
GRIDFORMAT_END
 95
        8
302
GRIDFORMAT
  1
GRIDFORMAT_BEGIN
 90
        0
 91
        1
 62
     0
 92
       -2
340
14
 93
        0
 40
0.045
309
GRIDFORMAT_END
 95
       16
302
GRIDFORMAT
  1
GRIDFORMAT_BEGIN
 90
        0
 91
        1
 62
     0
 92
       -2
340
14
 93
        0
 40
0.045
309
GRIDFORMAT_END
 95
       32
302
GRIDFORMAT
  1
GRIDFORMAT_BEGIN
 90
        0
 91
        1
 62
     0
 92
       -2
340
14
 93
        0
 40
0.045
309
GRIDFORMAT_END
309
TABLEFORMAT_END
  1
CELLSTYLE_BEGIN
 90
        1
 91
        1
300
_TITLE
309
CELLSTYLE_END
300
CELLSTYLE
  1
TABLEFORMAT_BEGIN
 90
        5
170
     1
 91
        0
 92
        0
 62
   257
 93
        1
300
CONTENTFORMAT
  1
CONTENTFORMAT_BEGIN
 90
        0
 91
        0
 92
        4
 93
        0
300

 40
0.0
140
1.0
 94
        5
 62
     0
340
11
144
0.18
309
CONTENTFORMAT_END
171
     1
301
MARGIN
  1
CELLMARGIN_BEGIN
 40
0.06
 40
0.06
 40
0.06
 40
0.06
 40
0.06
 40
0.06
309
CELLMARGIN_END
 94
        6
 95
        1
302
GRIDFORMAT
  1
GRIDFORMAT_BEGIN
 90
        0
 91
        1
 62
     0
 92
       -2
340
14
 93
        0
 40
0.045
309
GRIDFORMAT_END
 95
        2
302
GRIDFORMAT
  1
GRIDFORMAT_BEGIN
 90
        0
 91
        1
 62
     0
 92
       -2
340
14
 93
        0
 40
0.045
309
GRIDFORMAT_END
 95
        4
302
GRIDFORMAT
  1
GRIDFORMAT_BEGIN
 90
        0
 91
        1
 62
     0
 92
       -2
340
14
 93
        0
 40
0.045
309
GRIDFORMAT_END
 95
        8
302
GRIDFORMAT
  1
GRIDFORMAT_BEGIN
 90
        0
 91
        1
 62
     0
 92
       -2
340
14
 93
        0
 40
0.045
309
GRIDFORMAT_END
 95
       16
302
GRIDFORMAT
  1
GRIDFORMAT_BEGIN
 90
        0
 91
        1
 62
     0
 92
       -2
340
14
 93
        0
 40
0.045
309
GRIDFORMAT_END
 95
       32
302
GRIDFORMAT
  1
GRIDFORMAT_BEGIN
 90
        0
 91
        1
 62
     0
 92
       -2
340
14
 93
        0
 40
0.045
309
GRIDFORMAT_END
309
TABLEFORMAT_END
  1
CELLSTYLE_BEGIN
 90
        2
 91
        1
300
_HEADER
309
CELLSTYLE_END
300
CELLSTYLE
  1
TABLEFORMAT_BEGIN
 90
        5
170
     1
 91
        0
 92
        0
 62
   257
 93
        1
300
CONTENTFORMAT
  1
CONTENTFORMAT_BEGIN
 90
        0
 91
        0
 92
        4
 93
        0
300

 40
0.0
140
1.0
 94
        2
 62
     0
340
11
144
0.18
309
CONTENTFORMAT_END
171
     1
301
MARGIN
  1
CELLMARGIN_BEGIN
 40
0.06
 40
0.06
 40
0.06
 40
0.06
 40
0.06
 40
0.06
309
CELLMARGIN_END
 94
        6
 95
        1
302
GRIDFORMAT
  1
GRIDFORMAT_BEGIN
 90
        0
 91
        1
 62
     0
 92
       -2
340
14
 93
        0
 40
0.045
309
GRIDFORMAT_END
 95
        2
302
GRIDFORMAT
  1
GRIDFORMAT_BEGIN
 90
        0
 91
        1
 62
     0
 92
       -2
340
14
 93
        0
 40
0.045
309
GRIDFORMAT_END
 95
        4
302
GRIDFORMAT
  1
GRIDFORMAT_BEGIN
 90
        0
 91
        1
 62
     0
 92
       -2
340
14
 93
        0
 40
0.045
309
GRIDFORMAT_END
 95
        8
302
GRIDFORMAT
  1
GRIDFORMAT_BEGIN
 90
        0
 91
        1
 62
     0
 92
       -2
340
14
 93
        0
 40
0.045
309
GRIDFORMAT_END
 95
       16
302
GRIDFORMAT
  1
GRIDFORMAT_BEGIN
 90
        0
 91
        1
 62
     0
 92
       -2
340
14
 93
        0
 40
0.045
309
GRIDFORMAT_END
 95
       32
302
GRIDFORMAT
  1
GRIDFORMAT_BEGIN
 90
        0
 91
        1
 62
     0
 92
       -2
340
14
 93
        0
 40
0.045
309
GRIDFORMAT_END
309
TABLEFORMAT_END
  1
CELLSTYLE_BEGIN
 90
        3
 91
        2
300
_DATA
309
CELLSTYLE_END
  0
XRECORD
  5
B6
102
{ACAD_REACTORS
330
B5
102
}
330
B5
100
AcDbXrecord
280
     1
102
RTVSPropertyOp0
 70
     1
102
RTVSPropertyOp1
 70
     1
102
RTVSPropertyOp2
 70
     1
102
RTVSPropertyOp3
 70
     1
102
RTVSPropertyOp4
 70
     1
102
RTVSPropertyOp5
 70
     1
102
RTVSPropertyOp6
 70
     1
102
RTVSPropertyOp7
 70
     1
102
RTVSPropertyOp8
 70
     1
102
RTVSPropertyOp9
 70
     1
102
RTVSPropertyOp10
 70
     1
102
RTVSPropertyOp11
 70
     1
102
RTVSPropertyOp12
 70
     1
102
RTVSPropertyOp13
 70
     1
102
RTVSPropertyOp14
 70
     1
102
RTVSPropertyOp15
 70
     1
102
RTVSPropertyOp16
 70
     1
102
RTVSPropertyOp17
 70
     1
102
RTVSPropertyOp18
 70
     1
102
RTVSPropertyOp19
 70
     1
102
RTVSPropertyOp20
 70
     1
102
RTVSPropertyOp21
 70
     1
102
RTVSPropertyOp22
 70
     1
102
RTVSPropertyOp23
 70
     1
102
RTVSPropertyOp24
 70
     1
102
RTVSPropertyOp25
 70
     1
102
RTVSPropertyOp26
 70
     1
102
RTVSPropertyOp27
 70
     1
102
RTVSPropertyOp28
 70
     1
102
RTVSPropertyOp29
 70
     1
102
RTVSPropertyOp30
 70
     1
102
RTVSPropertyOp31
 70
     1
102
RTVSPropertyOp32
 70
     1
102
RTVSPropertyOp33
 70
     1
102
RTVSPropertyOp34
 70
     1
102
RTVSPropertyOp35
 70
     1
102
RTVSPropertyOp36
 70
     1
102
RTVSPropertyOp37
 70
     1
102
RTVSPropertyOp38
 70
     1
102
RTVSPropertyOp39
 70
     1
102
RTVSPropertyOp40
 70
     1
102
RTVSPropertyOp41
 70
     1
102
RTVSPropertyOp42
 70
     1
102
RTVSPropertyOp43
 70
     1
102
RTVSPropertyOp44
 70
     1
102
RTVSPropertyOp45
 70
     1
102
RTVSPropertyOp46
 70
     1
102
RTVSPropertyOp47
 70
     1
102
RTVSPropertyOp48
 70
     1
102
RTVSPropertyOp49
 70
     1
102
RTVSPropertyOp50
 70
     1
102
RTVSPropertyOp51
 70
     0
102
RTVSPropertyOp52
 70
     0
102
RTVSPropertyOp53
 70
     1
102
RTVSPropertyOp54
 70
     1
102
RTVSPropertyOp55
 70
     1
102
RTVSPropertyOp56
 70
     1
102
RTVSPropertyOp57
 70
     1
102
RTVSPost2010Prop28
280
     1
102
RTVSPost2010PropOp28
 70
     1
102
RTVSPost2010Prop29
280
     1
102
RTVSPost2010PropOp29
 70
     1
102
RTVSPost2010Prop30
280
     0
102
RTVSPost2010PropOp30
 70
     1
102
RTVSPost2010Prop31
280
     0
102
RTVSPost2010PropOp31
 70
     1
102
RTVSPost2010Prop32
280
     0
102
RTVSPost2010PropOp32
 70
     1
102
RTVSPost2010Prop33
280
     0
102
RTVSPost2010PropOp33
 70
     1
102
RTVSPost2010Prop34
280
     0
102
RTVSPost2010PropOp34
 70
     1
102
RTVSPost2010Prop35
280
     0
102
RTVSPost2010PropOp35
 70
     1
102
RTVSPost2010Prop36
280
     0
102
RTVSPost2010PropOp36
 70
     1
102
RTVSPost2010Prop37
 90
       50
102
RTVSPost2010PropOp37
 70
     1
102
RTVSPost2010Prop38
140
0.0
102
RTVSPost2010PropOp38
 70
     1
102
RTVSPost2010Prop39
140
1.0
102
RTVSPost2010PropOp39
 70
     1
102
RTVSPost2010Prop40
 90
        0
102
RTVSPost2010PropOp40
 70
     1
102
RTVSPost2010Prop41ColorIndex
 90
       18
102
RTVSPost2010Prop41ColorRGB
 90
        0
102
RTVSPost2010PropOp41
 70
     1
102
RTVSPost2010Prop42
 90
       50
102
RTVSPost2010PropOp42
 70
     1
102
RTVSPost2010Prop43
 90
        3
102
RTVSPost2010PropOp43
 70
     1
102
RTVSPost2010Prop44ColorIndex
 90
        5
102
RTVSPost2010Prop44ColorRGB
 90
      255
102
RTVSPost2010PropOp44
 70
     1
102
RTVSPost2010Prop45
280
     0
102
RTVSPost2010PropOp45
 70
     1
102
RTVSPost2010Prop46
 90
       50
102
RTVSPost2010PropOp46
 70
     1
102
RTVSPost2010Prop47
 90
       50
102
RTVSPost2010PropOp47
 70
     1
102
RTVSPost2010Prop48
 90
       50
102
RTVSPost2010PropOp48
 70
     1
102
RTVSPost2010Prop49
280
     0
102
RTVSPost2010PropOp49
 70
     1
102
RTVSPost2010Prop50
 90
       50
102
RTVSPost2010PropOp50
 70
     1
102
RTVSPost2010Prop51ColorIndex
 90
      256
102
RTVSPost2010Prop51ColorRGB
 90
-16777216
102
RTVSPost2010PropOp51
 70
     0
102
RTVSPost2010Prop52
140
1.0
102
RTVSPost2010PropOp52
 70
     0
102
RTVSPost2010Prop53
 90
        2
102
RTVSPost2010PropOp53
 70
     1
102
RTVSPost2010Prop54
  1
strokes_ogs.tif
102
RTVSPost2010PropOp54
 70
     1
102
RTVSPost2010Prop55
280
     0
102
RTVSPost2010PropOp55
 70
     1
102
RTVSPost2010Prop56
140
1.0
102
RTVSPost2010PropOp56
 70
     1
102
RTVSPost2010Prop57
140
1.0
102
RTVSPost2010PropOp57
 70
     1
  0
XRECORD
  5
BC
102
{ACAD_REACTORS
330
BB
102
}
330
BB
100
AcDbXrecord
280
     1
102
RTVSPropertyOp0
 70
     1
102
RTVSPropertyOp1
 70
     1
102
RTVSPropertyOp2
 70
     1
102
RTVSPropertyOp3
 70
     1
102
RTVSPropertyOp4
 70
     1
102
RTVSPropertyOp5
 70
     1
102
RTVSPropertyOp6
 70
     1
102
RTVSPropertyOp7
 70
     1
102
RTVSPropertyOp8
 70
     1
102
RTVSPropertyOp9
 70
     1
102
RTVSPropertyOp10
 70
     1
102
RTVSPropertyOp11
 70
     1
102
RTVSPropertyOp12
 70
     1
102
RTVSPropertyOp13
 70
     1
102
RTVSPropertyOp14
 70
     1
102
RTVSPropertyOp15
 70
     1
102
RTVSPropertyOp16
 70
     1
102
RTVSPropertyOp17
 70
     1
102
RTVSPropertyOp18
 70
     1
102
RTVSPropertyOp19
 70
     1
102
RTVSPropertyOp20
 70
     1
102
RTVSPropertyOp21
 70
     1
102
RTVSPropertyOp22
 70
     1
102
RTVSPropertyOp23
 70
     1
102
RTVSPropertyOp24
 70
     1
102
RTVSPropertyOp25
 70
     1
102
RTVSPropertyOp26
 70
     1
102
RTVSPropertyOp27
 70
     1
102
RTVSPropertyOp28
 70
     1
102
RTVSPropertyOp29
 70
     1
102
RTVSPropertyOp30
 70
     1
102
RTVSPropertyOp31
 70
     1
102
RTVSPropertyOp32
 70
     1
102
RTVSPropertyOp33
 70
     1
102
RTVSPropertyOp34
 70
     1
102
RTVSPropertyOp35
 70
     1
102
RTVSPropertyOp36
 70
     1
102
RTVSPropertyOp37
 70
     1
102
RTVSPropertyOp38
 70
     1
102
RTVSPropertyOp39
 70
     1
102
RTVSPropertyOp40
 70
     1
102
RTVSPropertyOp41
 70
     1
102
RTVSPropertyOp42
 70
     1
102
RTVSPropertyOp43
 70
     1
102
RTVSPropertyOp44
 70
     1
102
RTVSPropertyOp45
 70
     1
102
RTVSPropertyOp46
 70
     1
102
RTVSPropertyOp47
 70
     1
102
RTVSPropertyOp48
 70
     1
102
RTVSPropertyOp49
 70
     1
102
RTVSPropertyOp50
 70
     1
102
RTVSPropertyOp51
 70
     0
102
RTVSPropertyOp52
 70
     0
102
RTVSPropertyOp53
 70
     1
102
RTVSPropertyOp54
 70
     1
102
RTVSPropertyOp55
 70
     1
102
RTVSPropertyOp56
 70
     1
102
RTVSPropertyOp57
 70
     1
102
RTVSPost2010Prop28
280
     0
102
RTVSPost2010PropOp28
 70
     1
102
RTVSPost2010Prop29
280
     1
102
RTVSPost2010PropOp29
 70
     1
102
RTVSPost2010Prop30
280
     1
102
RTVSPost2010PropOp30
 70
     1
102
RTVSPost2010Prop31
280
     0
102
RTVSPost2010PropOp31
 70
     1
102
RTVSPost2010Prop32
280
     0
102
RTVSPost2010PropOp32
 70
     1
102
RTVSPost2010Prop33
280
     0
102
RTVSPost2010PropOp33
 70
     1
102
RTVSPost2010Prop34
280
     0
102
RTVSPost2010PropOp34
 70
     1
102
RTVSPost2010Prop35
280
     0
102
RTVSPost2010PropOp35
 70
     1
102
RTVSPost2010Prop36
280
     0
102
RTVSPost2010PropOp36
 70
     1
102
RTVSPost2010Prop37
 90
       50
102
RTVSPost2010PropOp37
 70
     1
102
RTVSPost2010Prop38
140
0.0
102
RTVSPost2010PropOp38
 70
     1
102
RTVSPost2010Prop39
140
1.0
102
RTVSPost2010PropOp39
 70
     1
102
RTVSPost2010Prop40
 90
        0
102
RTVSPost2010PropOp40
 70
     1
102
RTVSPost2010Prop41ColorIndex
 90
       18
102
RTVSPost2010Prop41ColorRGB
 90
        0
102
RTVSPost2010PropOp41
 70
     1
102
RTVSPost2010Prop42
 90
       50
102
RTVSPost2010PropOp42
 70
     1
102
RTVSPost2010Prop43
 90
        3
102
RTVSPost2010PropOp43
 70
     1
102
RTVSPost2010Prop44ColorIndex
 90
        5
102
RTVSPost2010Prop44ColorRGB
 90
      255
102
RTVSPost2010PropOp44
 70
     1
102
RTVSPost2010Prop45
280
     0
102
RTVSPost2010PropOp45
 70
     1
102
RTVSPost2010Prop46
 90
       50
102
RTVSPost2010PropOp46
 70
     1
102
RTVSPost2010Prop47
 90
       50
102
RTVSPost2010PropOp47
 70
     1
102
RTVSPost2010Prop48
 90
       50
102
RTVSPost2010PropOp48
 70
     1
102
RTVSPost2010Prop49
280
     0
102
RTVSPost2010PropOp49
 70
     1
102
RTVSPost2010Prop50
 90
       50
102
RTVSPost2010PropOp50
 70
     1
102
RTVSPost2010Prop51ColorIndex
 90
      256
102
RTVSPost2010Prop51ColorRGB
 90
-16777216
102
RTVSPost2010PropOp51
 70
     0
102
RTVSPost2010Prop52
140
1.0
102
RTVSPost2010PropOp52
 70
     0
102
RTVSPost2010Prop53
 90
        2
102
RTVSPost2010PropOp53
 70
     1
102
RTVSPost2010Prop54
  1
strokes_ogs.tif
102
RTVSPost2010PropOp54
 70
     1
102
RTVSPost2010Prop55
280
     0
102
RTVSPost2010PropOp55
 70
     1
102
RTVSPost2010Prop56
140
1.0
102
RTVSPost2010PropOp56
 70
     1
102
RTVSPost2010Prop57
140
1.0
102
RTVSPost2010PropOp57
 70
     1
  0
XRECORD
  5
C4
102
{ACAD_REACTORS
330
C3
102
}
330
C3
100
AcDbXrecord
280
     1
102
RTVSPropertyOp0
 70
     1
102
RTVSPropertyOp1
 70
     1
102
RTVSPropertyOp2
 70
     1
102
RTVSPropertyOp3
 70
     1
102
RTVSPropertyOp4
 70
     1
102
RTVSPropertyOp5
 70
     1
102
RTVSPropertyOp6
 70
     1
102
RTVSPropertyOp7
 70
     1
102
RTVSPropertyOp8
 70
     1
102
RTVSPropertyOp9
 70
     1
102
RTVSPropertyOp10
 70
     1
102
RTVSPropertyOp11
 70
     1
102
RTVSPropertyOp12
 70
     1
102
RTVSPropertyOp13
 70
     1
102
RTVSPropertyOp14
 70
     1
102
RTVSPropertyOp15
 70
     1
102
RTVSPropertyOp16
 70
     1
102
RTVSPropertyOp17
 70
     1
102
RTVSPropertyOp18
 70
     1
102
RTVSPropertyOp19
 70
     1
102
RTVSPropertyOp20
 70
     1
102
RTVSPropertyOp21
 70
     1
102
RTVSPropertyOp22
 70
     1
102
RTVSPropertyOp23
 70
     1
102
RTVSPropertyOp24
 70
     1
102
RTVSPropertyOp25
 70
     1
102
RTVSPropertyOp26
 70
     1
102
RTVSPropertyOp27
 70
     1
102
RTVSPropertyOp28
 70
     1
102
RTVSPropertyOp29
 70
     1
102
RTVSPropertyOp30
 70
     1
102
RTVSPropertyOp31
 70
     1
102
RTVSPropertyOp32
 70
     1
102
RTVSPropertyOp33
 70
     1
102
RTVSPropertyOp34
 70
     1
102
RTVSPropertyOp35
 70
     1
102
RTVSPropertyOp36
 70
     1
102
RTVSPropertyOp37
 70
     1
102
RTVSPropertyOp38
 70
     1
102
RTVSPropertyOp39
 70
     1
102
RTVSPropertyOp40
 70
     1
102
RTVSPropertyOp41
 70
     1
102
RTVSPropertyOp42
 70
     1
102
RTVSPropertyOp43
 70
     1
102
RTVSPropertyOp44
 70
     1
102
RTVSPropertyOp45
 70
     1
102
RTVSPropertyOp46
 70
     1
102
RTVSPropertyOp47
 70
     1
102
RTVSPropertyOp48
 70
     1
102
RTVSPropertyOp49
 70
     1
102
RTVSPropertyOp50
 70
     1
102
RTVSPropertyOp51
 70
     0
102
RTVSPropertyOp52
 70
     0
102
RTVSPropertyOp53
 70
     1
102
RTVSPropertyOp54
 70
     1
102
RTVSPropertyOp55
 70
     1
102
RTVSPropertyOp56
 70
     1
102
RTVSPropertyOp57
 70
     1
102
RTVSPost2010Prop28
280
     0
102
RTVSPost2010PropOp28
 70
     1
102
RTVSPost2010Prop29
280
     1
102
RTVSPost2010PropOp29
 70
     1
102
RTVSPost2010Prop30
280
     1
102
RTVSPost2010PropOp30
 70
     1
102
RTVSPost2010Prop31
280
     0
102
RTVSPost2010PropOp31
 70
     1
102
RTVSPost2010Prop32
280
     0
102
RTVSPost2010PropOp32
 70
     1
102
RTVSPost2010Prop33
280
     0
102
RTVSPost2010PropOp33
 70
     1
102
RTVSPost2010Prop34
280
     0
102
RTVSPost2010PropOp34
 70
     1
102
RTVSPost2010Prop35
280
     0
102
RTVSPost2010PropOp35
 70
     1
102
RTVSPost2010Prop36
280
     0
102
RTVSPost2010PropOp36
 70
     1
102
RTVSPost2010Prop37
 90
       50
102
RTVSPost2010PropOp37
 70
     1
102
RTVSPost2010Prop38
140
0.0
102
RTVSPost2010PropOp38
 70
     1
102
RTVSPost2010Prop39
140
1.0
102
RTVSPost2010PropOp39
 70
     1
102
RTVSPost2010Prop40
 90
        0
102
RTVSPost2010PropOp40
 70
     1
102
RTVSPost2010Prop41ColorIndex
 90
       18
102
RTVSPost2010Prop41ColorRGB
 90
        0
102
RTVSPost2010PropOp41
 70
     1
102
RTVSPost2010Prop42
 90
       50
102
RTVSPost2010PropOp42
 70
     1
102
RTVSPost2010Prop43
 90
        3
102
RTVSPost2010PropOp43
 70
     1
102
RTVSPost2010Prop44ColorIndex
 90
        5
102
RTVSPost2010Prop44ColorRGB
 90
      255
102
RTVSPost2010PropOp44
 70
     1
102
RTVSPost2010Prop45
280
     0
102
RTVSPost2010PropOp45
 70
     1
102
RTVSPost2010Prop46
 90
       50
102
RTVSPost2010PropOp46
 70
     1
102
RTVSPost2010Prop47
 90
       50
102
RTVSPost2010PropOp47
 70
     1
102
RTVSPost2010Prop48
 90
       50
102
RTVSPost2010PropOp48
 70
     1
102
RTVSPost2010Prop49
280
     0
102
RTVSPost2010PropOp49
 70
     1
102
RTVSPost2010Prop50
 90
       50
102
RTVSPost2010PropOp50
 70
     1
102
RTVSPost2010Prop51ColorIndex
 90
      256
102
RTVSPost2010Prop51ColorRGB
 90
-16777216
102
RTVSPost2010PropOp51
 70
     0
102
RTVSPost2010Prop52
140
1.0
102
RTVSPost2010PropOp52
 70
     0
102
RTVSPost2010Prop53
 90
        2
102
RTVSPost2010PropOp53
 70
     1
102
RTVSPost2010Prop54
  1
strokes_ogs.tif
102
RTVSPost2010PropOp54
 70
     1
102
RTVSPost2010Prop55
280
     0
102
RTVSPost2010PropOp55
 70
     1
102
RTVSPost2010Prop56
140
1.0
102
RTVSPost2010PropOp56
 70
     1
102
RTVSPost2010Prop57
140
1.0
102
RTVSPost2010PropOp57
 70
     1
  0
XRECORD
  5
CC
102
{ACAD_REACTORS
330
CB
102
}
330
CB
100
AcDbXrecord
280
     1
102
RTVSPropertyOp0
 70
     1
102
RTVSPropertyOp1
 70
     1
102
RTVSPropertyOp2
 70
     1
102
RTVSPropertyOp3
 70
     1
102
RTVSPropertyOp4
 70
     1
102
RTVSPropertyOp5
 70
     1
102
RTVSPropertyOp6
 70
     1
102
RTVSPropertyOp7
 70
     1
102
RTVSPropertyOp8
 70
     1
102
RTVSPropertyOp9
 70
     1
102
RTVSPropertyOp10
 70
     1
102
RTVSPropertyOp11
 70
     1
102
RTVSPropertyOp12
 70
     1
102
RTVSPropertyOp13
 70
     1
102
RTVSPropertyOp14
 70
     1
102
RTVSPropertyOp15
 70
     1
102
RTVSPropertyOp16
 70
     1
102
RTVSPropertyOp17
 70
     1
102
RTVSPropertyOp18
 70
     1
102
RTVSPropertyOp19
 70
     1
102
RTVSPropertyOp20
 70
     1
102
RTVSPropertyOp21
 70
     1
102
RTVSPropertyOp22
 70
     1
102
RTVSPropertyOp23
 70
     1
102
RTVSPropertyOp24
 70
     1
102
RTVSPropertyOp25
 70
     1
102
RTVSPropertyOp26
 70
     1
102
RTVSPropertyOp27
 70
     1
102
RTVSPropertyOp28
 70
     1
102
RTVSPropertyOp29
 70
     1
102
RTVSPropertyOp30
 70
     1
102
RTVSPropertyOp31
 70
     1
102
RTVSPropertyOp32
 70
     1
102
RTVSPropertyOp33
 70
     1
102
RTVSPropertyOp34
 70
     1
102
RTVSPropertyOp35
 70
     1
102
RTVSPropertyOp36
 70
     1
102
RTVSPropertyOp37
 70
     1
102
RTVSPropertyOp38
 70
     1
102
RTVSPropertyOp39
 70
     1
102
RTVSPropertyOp40
 70
     1
102
RTVSPropertyOp41
 70
     1
102
RTVSPropertyOp42
 70
     1
102
RTVSPropertyOp43
 70
     1
102
RTVSPropertyOp44
 70
     1
102
RTVSPropertyOp45
 70
     1
102
RTVSPropertyOp46
 70
     1
102
RTVSPropertyOp47
 70
     1
102
RTVSPropertyOp48
 70
     1
102
RTVSPropertyOp49
 70
     1
102
RTVSPropertyOp50
 70
     1
102
RTVSPropertyOp51
 70
     0
102
RTVSPropertyOp52
 70
     0
102
RTVSPropertyOp53
 70
     1
102
RTVSPropertyOp54
 70
     1
102
RTVSPropertyOp55
 70
     1
102
RTVSPropertyOp56
 70
     1
102
RTVSPropertyOp57
 70
     1
102
RTVSPost2010Prop28
280
     0
102
RTVSPost2010PropOp28
 70
     1
102
RTVSPost2010Prop29
280
     1
102
RTVSPost2010PropOp29
 70
     1
102
RTVSPost2010Prop30
280
     1
102
RTVSPost2010PropOp30
 70
     1
102
RTVSPost2010Prop31
280
     0
102
RTVSPost2010PropOp31
 70
     1
102
RTVSPost2010Prop32
280
     0
102
RTVSPost2010PropOp32
 70
     1
102
RTVSPost2010Prop33
280
     0
102
RTVSPost2010PropOp33
 70
     1
102
RTVSPost2010Prop34
280
     0
102
RTVSPost2010PropOp34
 70
     1
102
RTVSPost2010Prop35
280
     0
102
RTVSPost2010PropOp35
 70
     1
102
RTVSPost2010Prop36
280
     0
102
RTVSPost2010PropOp36
 70
     1
102
RTVSPost2010Prop37
 90
       50
102
RTVSPost2010PropOp37
 70
     1
102
RTVSPost2010Prop38
140
0.0
102
RTVSPost2010PropOp38
 70
     1
102
RTVSPost2010Prop39
140
1.0
102
RTVSPost2010PropOp39
 70
     1
102
RTVSPost2010Prop40
 90
        0
102
RTVSPost2010PropOp40
 70
     1
102
RTVSPost2010Prop41ColorIndex
 90
       18
102
RTVSPost2010Prop41ColorRGB
 90
        0
102
RTVSPost2010PropOp41
 70
     1
102
RTVSPost2010Prop42
 90
       50
102
RTVSPost2010PropOp42
 70
     1
102
RTVSPost2010Prop43
 90
        3
102
RTVSPost2010PropOp43
 70
     1
102
RTVSPost2010Prop44ColorIndex
 90
        5
102
RTVSPost2010Prop44ColorRGB
 90
      255
102
RTVSPost2010PropOp44
 70
     1
102
RTVSPost2010Prop45
280
     0
102
RTVSPost2010PropOp45
 70
     1
102
RTVSPost2010Prop46
 90
       50
102
RTVSPost2010PropOp46
 70
     1
102
RTVSPost2010Prop47
 90
       50
102
RTVSPost2010PropOp47
 70
     1
102
RTVSPost2010Prop48
 90
       50
102
RTVSPost2010PropOp48
 70
     1
102
RTVSPost2010Prop49
280
     0
102
RTVSPost2010PropOp49
 70
     1
102
RTVSPost2010Prop50
 90
       50
102
RTVSPost2010PropOp50
 70
     1
102
RTVSPost2010Prop51ColorIndex
 90
      256
102
RTVSPost2010Prop51ColorRGB
 90
-16777216
102
RTVSPost2010PropOp51
 70
     0
102
RTVSPost2010Prop52
140
1.0
102
RTVSPost2010PropOp52
 70
     0
102
RTVSPost2010Prop53
 90
        2
102
RTVSPost2010PropOp53
 70
     1
102
RTVSPost2010Prop54
  1
strokes_ogs.tif
102
RTVSPost2010PropOp54
 70
     1
102
RTVSPost2010Prop55
280
     0
102
RTVSPost2010PropOp55
 70
     1
102
RTVSPost2010Prop56
140
1.0
102
RTVSPost2010PropOp56
 70
     1
102
RTVSPost2010Prop57
140
1.0
102
RTVSPost2010PropOp57
 70
     1
  0
XRECORD
  5
C0
102
{ACAD_REACTORS
330
BF
102
}
330
BF
100
AcDbXrecord
280
     1
102
RTVSPropertyOp0
 70
     1
102
RTVSPropertyOp1
 70
     1
102
RTVSPropertyOp2
 70
     1
102
RTVSPropertyOp3
 70
     1
102
RTVSPropertyOp4
 70
     1
102
RTVSPropertyOp5
 70
     1
102
RTVSPropertyOp6
 70
     1
102
RTVSPropertyOp7
 70
     1
102
RTVSPropertyOp8
 70
     1
102
RTVSPropertyOp9
 70
     1
102
RTVSPropertyOp10
 70
     1
102
RTVSPropertyOp11
 70
     1
102
RTVSPropertyOp12
 70
     1
102
RTVSPropertyOp13
 70
     1
102
RTVSPropertyOp14
 70
     1
102
RTVSPropertyOp15
 70
     1
102
RTVSPropertyOp16
 70
     1
102
RTVSPropertyOp17
 70
     1
102
RTVSPropertyOp18
 70
     1
102
RTVSPropertyOp19
 70
     1
102
RTVSPropertyOp20
 70
     1
102
RTVSPropertyOp21
 70
     1
102
RTVSPropertyOp22
 70
     1
102
RTVSPropertyOp23
 70
     1
102
RTVSPropertyOp24
 70
     1
102
RTVSPropertyOp25
 70
     1
102
RTVSPropertyOp26
 70
     1
102
RTVSPropertyOp27
 70
     1
102
RTVSPropertyOp28
 70
     1
102
RTVSPropertyOp29
 70
     1
102
RTVSPropertyOp30
 70
     1
102
RTVSPropertyOp31
 70
     1
102
RTVSPropertyOp32
 70
     1
102
RTVSPropertyOp33
 70
     1
102
RTVSPropertyOp34
 70
     1
102
RTVSPropertyOp35
 70
     1
102
RTVSPropertyOp36
 70
     1
102
RTVSPropertyOp37
 70
     1
102
RTVSPropertyOp38
 70
     1
102
RTVSPropertyOp39
 70
     1
102
RTVSPropertyOp40
 70
     1
102
RTVSPropertyOp41
 70
     1
102
RTVSPropertyOp42
 70
     1
102
RTVSPropertyOp43
 70
     1
102
RTVSPropertyOp44
 70
     1
102
RTVSPropertyOp45
 70
     1
102
RTVSPropertyOp46
 70
     1
102
RTVSPropertyOp47
 70
     1
102
RTVSPropertyOp48
 70
     1
102
RTVSPropertyOp49
 70
     1
102
RTVSPropertyOp50
 70
     1
102
RTVSPropertyOp51
 70
     0
102
RTVSPropertyOp52
 70
     0
102
RTVSPropertyOp53
 70
     1
102
RTVSPropertyOp54
 70
     1
102
RTVSPropertyOp55
 70
     1
102
RTVSPropertyOp56
 70
     1
102
RTVSPropertyOp57
 70
     1
102
RTVSPost2010Prop28
280
     0
102
RTVSPost2010PropOp28
 70
     1
102
RTVSPost2010Prop29
280
     1
102
RTVSPost2010PropOp29
 70
     1
102
RTVSPost2010Prop30
280
     1
102
RTVSPost2010PropOp30
 70
     1
102
RTVSPost2010Prop31
280
     0
102
RTVSPost2010PropOp31
 70
     1
102
RTVSPost2010Prop32
280
     0
102
RTVSPost2010PropOp32
 70
     1
102
RTVSPost2010Prop33
280
     0
102
RTVSPost2010PropOp33
 70
     1
102
RTVSPost2010Prop34
280
     0
102
RTVSPost2010PropOp34
 70
     1
102
RTVSPost2010Prop35
280
     0
102
RTVSPost2010PropOp35
 70
     1
102
RTVSPost2010Prop36
280
     0
102
RTVSPost2010PropOp36
 70
     1
102
RTVSPost2010Prop37
 90
       50
102
RTVSPost2010PropOp37
 70
     1
102
RTVSPost2010Prop38
140
0.0
102
RTVSPost2010PropOp38
 70
     1
102
RTVSPost2010Prop39
140
1.0
102
RTVSPost2010PropOp39
 70
     1
102
RTVSPost2010Prop40
 90
        0
102
RTVSPost2010PropOp40
 70
     1
102
RTVSPost2010Prop41ColorIndex
 90
       18
102
RTVSPost2010Prop41ColorRGB
 90
        0
102
RTVSPost2010PropOp41
 70
     1
102
RTVSPost2010Prop42
 90
       50
102
RTVSPost2010PropOp42
 70
     1
102
RTVSPost2010Prop43
 90
        3
102
RTVSPost2010PropOp43
 70
     1
102
RTVSPost2010Prop44ColorIndex
 90
        5
102
RTVSPost2010Prop44ColorRGB
 90
      255
102
RTVSPost2010PropOp44
 70
     1
102
RTVSPost2010Prop45
280
     0
102
RTVSPost2010PropOp45
 70
     1
102
RTVSPost2010Prop46
 90
       50
102
RTVSPost2010PropOp46
 70
     1
102
RTVSPost2010Prop47
 90
       50
102
RTVSPost2010PropOp47
 70
     1
102
RTVSPost2010Prop48
 90
       50
102
RTVSPost2010PropOp48
 70
     1
102
RTVSPost2010Prop49
280
     0
102
RTVSPost2010PropOp49
 70
     1
102
RTVSPost2010Prop50
 90
       50
102
RTVSPost2010PropOp50
 70
     1
102
RTVSPost2010Prop51ColorIndex
 90
      256
102
RTVSPost2010Prop51ColorRGB
 90
-16777216
102
RTVSPost2010PropOp51
 70
     0
102
RTVSPost2010Prop52
140
1.0
102
RTVSPost2010PropOp52
 70
     0
102
RTVSPost2010Prop53
 90
        2
102
RTVSPost2010PropOp53
 70
     1
102
RTVSPost2010Prop54
  1
strokes_ogs.tif
102
RTVSPost2010PropOp54
 70
     1
102
RTVSPost2010Prop55
280
     0
102
RTVSPost2010PropOp55
 70
     1
102
RTVSPost2010Prop56
140
1.0
102
RTVSPost2010PropOp56
 70
     1
102
RTVSPost2010Prop57
140
1.0
102
RTVSPost2010PropOp57
 70
     1
  0
XRECORD
  5
C2
102
{ACAD_REACTORS
330
C1
102
}
330
C1
100
AcDbXrecord
280
     1
102
RTVSPropertyOp0
 70
     1
102
RTVSPropertyOp1
 70
     1
102
RTVSPropertyOp2
 70
     1
102
RTVSPropertyOp3
 70
     1
102
RTVSPropertyOp4
 70
     1
102
RTVSPropertyOp5
 70
     1
102
RTVSPropertyOp6
 70
     1
102
RTVSPropertyOp7
 70
     1
102
RTVSPropertyOp8
 70
     1
102
RTVSPropertyOp9
 70
     1
102
RTVSPropertyOp10
 70
     1
102
RTVSPropertyOp11
 70
     1
102
RTVSPropertyOp12
 70
     1
102
RTVSPropertyOp13
 70
     1
102
RTVSPropertyOp14
 70
     1
102
RTVSPropertyOp15
 70
     1
102
RTVSPropertyOp16
 70
     1
102
RTVSPropertyOp17
 70
     1
102
RTVSPropertyOp18
 70
     1
102
RTVSPropertyOp19
 70
     1
102
RTVSPropertyOp20
 70
     1
102
RTVSPropertyOp21
 70
     1
102
RTVSPropertyOp22
 70
     1
102
RTVSPropertyOp23
 70
     1
102
RTVSPropertyOp24
 70
     1
102
RTVSPropertyOp25
 70
     1
102
RTVSPropertyOp26
 70
     1
102
RTVSPropertyOp27
 70
     1
102
RTVSPropertyOp28
 70
     1
102
RTVSPropertyOp29
 70
     1
102
RTVSPropertyOp30
 70
     1
102
RTVSPropertyOp31
 70
     1
102
RTVSPropertyOp32
 70
     1
102
RTVSPropertyOp33
 70
     1
102
RTVSPropertyOp34
 70
     1
102
RTVSPropertyOp35
 70
     1
102
RTVSPropertyOp36
 70
     1
102
RTVSPropertyOp37
 70
     1
102
RTVSPropertyOp38
 70
     1
102
RTVSPropertyOp39
 70
     1
102
RTVSPropertyOp40
 70
     1
102
RTVSPropertyOp41
 70
     1
102
RTVSPropertyOp42
 70
     1
102
RTVSPropertyOp43
 70
     1
102
RTVSPropertyOp44
 70
     1
102
RTVSPropertyOp45
 70
     1
102
RTVSPropertyOp46
 70
     1
102
RTVSPropertyOp47
 70
     1
102
RTVSPropertyOp48
 70
     1
102
RTVSPropertyOp49
 70
     1
102
RTVSPropertyOp50
 70
     1
102
RTVSPropertyOp51
 70
     0
102
RTVSPropertyOp52
 70
     0
102
RTVSPropertyOp53
 70
     1
102
RTVSPropertyOp54
 70
     1
102
RTVSPropertyOp55
 70
     1
102
RTVSPropertyOp56
 70
     1
102
RTVSPropertyOp57
 70
     1
102
RTVSPost2010Prop28
280
     0
102
RTVSPost2010PropOp28
 70
     1
102
RTVSPost2010Prop29
280
     1
102
RTVSPost2010PropOp29
 70
     1
102
RTVSPost2010Prop30
280
     1
102
RTVSPost2010PropOp30
 70
     1
102
RTVSPost2010Prop31
280
     0
102
RTVSPost2010PropOp31
 70
     1
102
RTVSPost2010Prop32
280
     0
102
RTVSPost2010PropOp32
 70
     1
102
RTVSPost2010Prop33
280
     0
102
RTVSPost2010PropOp33
 70
     1
102
RTVSPost2010Prop34
280
     0
102
RTVSPost2010PropOp34
 70
     1
102
RTVSPost2010Prop35
280
     0
102
RTVSPost2010PropOp35
 70
     1
102
RTVSPost2010Prop36
280
     0
102
RTVSPost2010PropOp36
 70
     1
102
RTVSPost2010Prop37
 90
       50
102
RTVSPost2010PropOp37
 70
     1
102
RTVSPost2010Prop38
140
0.0
102
RTVSPost2010PropOp38
 70
     1
102
RTVSPost2010Prop39
140
1.0
102
RTVSPost2010PropOp39
 70
     1
102
RTVSPost2010Prop40
 90
        0
102
RTVSPost2010PropOp40
 70
     1
102
RTVSPost2010Prop41ColorIndex
 90
       18
102
RTVSPost2010Prop41ColorRGB
 90
        0
102
RTVSPost2010PropOp41
 70
     1
102
RTVSPost2010Prop42
 90
       50
102
RTVSPost2010PropOp42
 70
     1
102
RTVSPost2010Prop43
 90
        3
102
RTVSPost2010PropOp43
 70
     1
102
RTVSPost2010Prop44ColorIndex
 90
        5
102
RTVSPost2010Prop44ColorRGB
 90
      255
102
RTVSPost2010PropOp44
 70
     1
102
RTVSPost2010Prop45
280
     0
102
RTVSPost2010PropOp45
 70
     1
102
RTVSPost2010Prop46
 90
       50
102
RTVSPost2010PropOp46
 70
     1
102
RTVSPost2010Prop47
 90
       50
102
RTVSPost2010PropOp47
 70
     1
102
RTVSPost2010Prop48
 90
       50
102
RTVSPost2010PropOp48
 70
     1
102
RTVSPost2010Prop49
280
     0
102
RTVSPost2010PropOp49
 70
     1
102
RTVSPost2010Prop50
 90
       50
102
RTVSPost2010PropOp50
 70
     1
102
RTVSPost2010Prop51ColorIndex
 90
      256
102
RTVSPost2010Prop51ColorRGB
 90
-16777216
102
RTVSPost2010PropOp51
 70
     0
102
RTVSPost2010Prop52
140
1.0
102
RTVSPost2010PropOp52
 70
     0
102
RTVSPost2010Prop53
 90
        2
102
RTVSPost2010PropOp53
 70
     1
102
RTVSPost2010Prop54
  1
strokes_ogs.tif
102
RTVSPost2010PropOp54
 70
     1
102
RTVSPost2010Prop55
280
     0
102
RTVSPost2010PropOp55
 70
     1
102
RTVSPost2010Prop56
140
1.0
102
RTVSPost2010PropOp56
 70
     1
102
RTVSPost2010Prop57
140
1.0
102
RTVSPost2010PropOp57
 70
     1
  0
XRECORD
  5
D2
102
{ACAD_REACTORS
330
D1
102
}
330
D1
100
AcDbXrecord
280
     1
102
RTVSPropertyOp0
 70
     0
102
RTVSPropertyOp1
 70
     0
102
RTVSPropertyOp2
 70
     0
102
RTVSPropertyOp3
 70
     0
102
RTVSPropertyOp4
 70
     0
102
RTVSPropertyOp5
 70
     0
102
RTVSPropertyOp6
 70
     0
102
RTVSPropertyOp7
 70
     0
102
RTVSPropertyOp8
 70
     0
102
RTVSPropertyOp9
 70
     0
102
RTVSPropertyOp10
 70
     0
102
RTVSPropertyOp11
 70
     0
102
RTVSPropertyOp12
 70
     0
102
RTVSPropertyOp13
 70
     0
102
RTVSPropertyOp14
 70
     2
102
RTVSPropertyOp15
 70
     0
102
RTVSPropertyOp16
 70
     0
102
RTVSPropertyOp17
 70
     0
102
RTVSPropertyOp18
 70
     0
102
RTVSPropertyOp19
 70
     0
102
RTVSPropertyOp20
 70
     0
102
RTVSPropertyOp21
 70
     0
102
RTVSPropertyOp22
 70
     0
102
RTVSPropertyOp23
 70
     0
102
RTVSPropertyOp24
 70
     0
102
RTVSPropertyOp25
 70
     0
102
RTVSPropertyOp26
 70
     0
102
RTVSPropertyOp27
 70
     0
102
RTVSPropertyOp28
 70
     0
102
RTVSPropertyOp29
 70
     0
102
RTVSPropertyOp30
 70
     0
102
RTVSPropertyOp31
 70
     0
102
RTVSPropertyOp32
 70
     0
102
RTVSPropertyOp33
 70
     0
102
RTVSPropertyOp34
 70
     0
102
RTVSPropertyOp35
 70
     0
102
RTVSPropertyOp36
 70
     0
102
RTVSPropertyOp37
 70
     0
102
RTVSPropertyOp38
 70
     0
102
RTVSPropertyOp39
 70
     0
102
RTVSPropertyOp40
 70
     0
102
RTVSPropertyOp41
 70
     0
102
RTVSPropertyOp42
 70
     0
102
RTVSPropertyOp43
 70
     0
102
RTVSPropertyOp44
 70
     0
102
RTVSPropertyOp45
 70
     0
102
RTVSPropertyOp46
 70
     0
102
RTVSPropertyOp47
 70
     0
102
RTVSPropertyOp48
 70
     0
102
RTVSPropertyOp49
 70
     0
102
RTVSPropertyOp50
 70
     0
102
RTVSPropertyOp51
 70
     0
102
RTVSPropertyOp52
 70
     0
102
RTVSPropertyOp53
 70
     0
102
RTVSPropertyOp54
 70
     0
102
RTVSPropertyOp55
 70
     0
102
RTVSPropertyOp56
 70
     0
102
RTVSPropertyOp57
 70
     0
102
RTVSPost2010Prop28
280
     0
102
RTVSPost2010PropOp28
 70
     0
102
RTVSPost2010Prop29
280
     1
102
RTVSPost2010PropOp29
 70
     0
102
RTVSPost2010Prop30
280
     1
102
RTVSPost2010PropOp30
 70
     0
102
RTVSPost2010Prop31
280
     0
102
RTVSPost2010PropOp31
 70
     0
102
RTVSPost2010Prop32
280
     0
102
RTVSPost2010PropOp32
 70
     0
102
RTVSPost2010Prop33
280
     0
102
RTVSPost2010PropOp33
 70
     0
102
RTVSPost2010Prop34
280
     0
102
RTVSPost2010PropOp34
 70
     0
102
RTVSPost2010Prop35
280
     0
102
RTVSPost2010PropOp35
 70
     0
102
RTVSPost2010Prop36
280
     0
102
RTVSPost2010PropOp36
 70
     0
102
RTVSPost2010Prop37
 90
       50
102
RTVSPost2010PropOp37
 70
     0
102
RTVSPost2010Prop38
140
0.0
102
RTVSPost2010PropOp38
 70
     0
102
RTVSPost2010Prop39
140
1.0
102
RTVSPost2010PropOp39
 70
     0
102
RTVSPost2010Prop40
 90
        0
102
RTVSPost2010PropOp40
 70
     0
102
RTVSPost2010Prop41ColorIndex
 90
       18
102
RTVSPost2010Prop41ColorRGB
 90
        0
102
RTVSPost2010PropOp41
 70
     0
102
RTVSPost2010Prop42
 90
       50
102
RTVSPost2010PropOp42
 70
     0
102
RTVSPost2010Prop43
 90
        3
102
RTVSPost2010PropOp43
 70
     0
102
RTVSPost2010Prop44ColorIndex
 90
        5
102
RTVSPost2010Prop44ColorRGB
 90
      255
102
RTVSPost2010PropOp44
 70
     0
102
RTVSPost2010Prop45
280
     0
102
RTVSPost2010PropOp45
 70
     0
102
RTVSPost2010Prop46
 90
       50
102
RTVSPost2010PropOp46
 70
     0
102
RTVSPost2010Prop47
 90
       50
102
RTVSPost2010PropOp47
 70
     0
102
RTVSPost2010Prop48
 90
       50
102
RTVSPost2010PropOp48
 70
     0
102
RTVSPost2010Prop49
280
     0
102
RTVSPost2010PropOp49
 70
     0
102
RTVSPost2010Prop50
 90
       50
102
RTVSPost2010PropOp50
 70
     0
102
RTVSPost2010Prop51ColorIndex
 90
      256
102
RTVSPost2010Prop51ColorRGB
 90
-16777216
102
RTVSPost2010PropOp51
 70
     0
102
RTVSPost2010Prop52
140
1.0
102
RTVSPost2010PropOp52
 70
     0
102
RTVSPost2010Prop53
 90
        2
102
RTVSPost2010PropOp53
 70
     0
102
RTVSPost2010Prop54
  1
strokes_ogs.tif
102
RTVSPost2010PropOp54
 70
     0
102
RTVSPost2010Prop55
280
     0
102
RTVSPost2010PropOp55
 70
     0
102
RTVSPost2010Prop56
140
1.0
102
RTVSPost2010PropOp56
 70
     0
102
RTVSPost2010Prop57
140
1.0
102
RTVSPost2010PropOp57
 70
     0
  0
XRECORD
  5
CA
102
{ACAD_REACTORS
330
C9
102
}
330
C9
100
AcDbXrecord
280
     1
102
RTVSPropertyOp0
 70
     1
102
RTVSPropertyOp1
 70
     1
102
RTVSPropertyOp2
 70
     1
102
RTVSPropertyOp3
 70
     1
102
RTVSPropertyOp4
 70
     1
102
RTVSPropertyOp5
 70
     1
102
RTVSPropertyOp6
 70
     1
102
RTVSPropertyOp7
 70
     1
102
RTVSPropertyOp8
 70
     1
102
RTVSPropertyOp9
 70
     1
102
RTVSPropertyOp10
 70
     1
102
RTVSPropertyOp11
 70
     1
102
RTVSPropertyOp12
 70
     1
102
RTVSPropertyOp13
 70
     1
102
RTVSPropertyOp14
 70
     1
102
RTVSPropertyOp15
 70
     1
102
RTVSPropertyOp16
 70
     1
102
RTVSPropertyOp17
 70
     1
102
RTVSPropertyOp18
 70
     1
102
RTVSPropertyOp19
 70
     1
102
RTVSPropertyOp20
 70
     1
102
RTVSPropertyOp21
 70
     1
102
RTVSPropertyOp22
 70
     1
102
RTVSPropertyOp23
 70
     1
102
RTVSPropertyOp24
 70
     1
102
RTVSPropertyOp25
 70
     1
102
RTVSPropertyOp26
 70
     1
102
RTVSPropertyOp27
 70
     1
102
RTVSPropertyOp28
 70
     1
102
RTVSPropertyOp29
 70
     1
102
RTVSPropertyOp30
 70
     1
102
RTVSPropertyOp31
 70
     1
102
RTVSPropertyOp32
 70
     1
102
RTVSPropertyOp33
 70
     1
102
RTVSPropertyOp34
 70
     1
102
RTVSPropertyOp35
 70
     1
102
RTVSPropertyOp36
 70
     1
102
RTVSPropertyOp37
 70
     1
102
RTVSPropertyOp38
 70
     1
102
RTVSPropertyOp39
 70
     1
102
RTVSPropertyOp40
 70
     1
102
RTVSPropertyOp41
 70
     1
102
RTVSPropertyOp42
 70
     1
102
RTVSPropertyOp43
 70
     1
102
RTVSPropertyOp44
 70
     1
102
RTVSPropertyOp45
 70
     1
102
RTVSPropertyOp46
 70
     1
102
RTVSPropertyOp47
 70
     1
102
RTVSPropertyOp48
 70
     1
102
RTVSPropertyOp49
 70
     1
102
RTVSPropertyOp50
 70
     1
102
RTVSPropertyOp51
 70
     0
102
RTVSPropertyOp52
 70
     0
102
RTVSPropertyOp53
 70
     1
102
RTVSPropertyOp54
 70
     1
102
RTVSPropertyOp55
 70
     1
102
RTVSPropertyOp56
 70
     1
102
RTVSPropertyOp57
 70
     1
102
RTVSPost2010Prop28
280
     0
102
RTVSPost2010PropOp28
 70
     1
102
RTVSPost2010Prop29
280
     1
102
RTVSPost2010PropOp29
 70
     1
102
RTVSPost2010Prop30
280
     1
102
RTVSPost2010PropOp30
 70
     1
102
RTVSPost2010Prop31
280
     0
102
RTVSPost2010PropOp31
 70
     1
102
RTVSPost2010Prop32
280
     0
102
RTVSPost2010PropOp32
 70
     1
102
RTVSPost2010Prop33
280
     0
102
RTVSPost2010PropOp33
 70
     1
102
RTVSPost2010Prop34
280
     0
102
RTVSPost2010PropOp34
 70
     1
102
RTVSPost2010Prop35
280
     0
102
RTVSPost2010PropOp35
 70
     1
102
RTVSPost2010Prop36
280
     0
102
RTVSPost2010PropOp36
 70
     1
102
RTVSPost2010Prop37
 90
       50
102
RTVSPost2010PropOp37
 70
     1
102
RTVSPost2010Prop38
140
0.0
102
RTVSPost2010PropOp38
 70
     1
102
RTVSPost2010Prop39
140
1.0
102
RTVSPost2010PropOp39
 70
     1
102
RTVSPost2010Prop40
 90
        0
102
RTVSPost2010PropOp40
 70
     1
102
RTVSPost2010Prop41ColorIndex
 90
       18
102
RTVSPost2010Prop41ColorRGB
 90
        0
102
RTVSPost2010PropOp41
 70
     1
102
RTVSPost2010Prop42
 90
       50
102
RTVSPost2010PropOp42
 70
     1
102
RTVSPost2010Prop43
 90
        3
102
RTVSPost2010PropOp43
 70
     1
102
RTVSPost2010Prop44ColorIndex
 90
        5
102
RTVSPost2010Prop44ColorRGB
 90
      255
102
RTVSPost2010PropOp44
 70
     1
102
RTVSPost2010Prop45
280
     0
102
RTVSPost2010PropOp45
 70
     1
102
RTVSPost2010Prop46
 90
       50
102
RTVSPost2010PropOp46
 70
     1
102
RTVSPost2010Prop47
 90
       50
102
RTVSPost2010PropOp47
 70
     1
102
RTVSPost2010Prop48
 90
       50
102
RTVSPost2010PropOp48
 70
     1
102
RTVSPost2010Prop49
280
     0
102
RTVSPost2010PropOp49
 70
     1
102
RTVSPost2010Prop50
 90
       50
102
RTVSPost2010PropOp50
 70
     1
102
RTVSPost2010Prop51ColorIndex
 90
      256
102
RTVSPost2010Prop51ColorRGB
 90
-16777216
102
RTVSPost2010PropOp51
 70
     0
102
RTVSPost2010Prop52
140
1.0
102
RTVSPost2010PropOp52
 70
     0
102
RTVSPost2010Prop53
 90
        2
102
RTVSPost2010PropOp53
 70
     1
102
RTVSPost2010Prop54
  1
strokes_ogs.tif
102
RTVSPost2010PropOp54
 70
     1
102
RTVSPost2010Prop55
280
     0
102
RTVSPost2010PropOp55
 70
     1
102
RTVSPost2010Prop56
140
1.0
102
RTVSPost2010PropOp56
 70
     1
102
RTVSPost2010Prop57
140
1.0
102
RTVSPost2010PropOp57
 70
     1
  0
XRECORD
  5
AE
102
{ACAD_REACTORS
330
AD
102
}
330
AD
100
AcDbXrecord
280
     1
102
RTVSPropertyOp0
 70
     1
102
RTVSPropertyOp1
 70
     1
102
RTVSPropertyOp2
 70
     1
102
RTVSPropertyOp3
 70
     1
102
RTVSPropertyOp4
 70
     1
102
RTVSPropertyOp5
 70
     1
102
RTVSPropertyOp6
 70
     1
102
RTVSPropertyOp7
 70
     1
102
RTVSPropertyOp8
 70
     1
102
RTVSPropertyOp9
 70
     1
102
RTVSPropertyOp10
 70
     1
102
RTVSPropertyOp11
 70
     1
102
RTVSPropertyOp12
 70
     1
102
RTVSPropertyOp13
 70
     1
102
RTVSPropertyOp14
 70
     1
102
RTVSPropertyOp15
 70
     1
102
RTVSPropertyOp16
 70
     1
102
RTVSPropertyOp17
 70
     1
102
RTVSPropertyOp18
 70
     1
102
RTVSPropertyOp19
 70
     1
102
RTVSPropertyOp20
 70
     1
102
RTVSPropertyOp21
 70
     1
102
RTVSPropertyOp22
 70
     1
102
RTVSPropertyOp23
 70
     1
102
RTVSPropertyOp24
 70
     1
102
RTVSPropertyOp25
 70
     1
102
RTVSPropertyOp26
 70
     1
102
RTVSPropertyOp27
 70
     1
102
RTVSPropertyOp28
 70
     1
102
RTVSPropertyOp29
 70
     1
102
RTVSPropertyOp30
 70
     1
102
RTVSPropertyOp31
 70
     1
102
RTVSPropertyOp32
 70
     1
102
RTVSPropertyOp33
 70
     1
102
RTVSPropertyOp34
 70
     1
102
RTVSPropertyOp35
 70
     1
102
RTVSPropertyOp36
 70
     1
102
RTVSPropertyOp37
 70
     1
102
RTVSPropertyOp38
 70
     1
102
RTVSPropertyOp39
 70
     1
102
RTVSPropertyOp40
 70
     1
102
RTVSPropertyOp41
 70
     1
102
RTVSPropertyOp42
 70
     1
102
RTVSPropertyOp43
 70
     1
102
RTVSPropertyOp44
 70
     1
102
RTVSPropertyOp45
 70
     1
102
RTVSPropertyOp46
 70
     1
102
RTVSPropertyOp47
 70
     1
102
RTVSPropertyOp48
 70
     1
102
RTVSPropertyOp49
 70
     1
102
RTVSPropertyOp50
 70
     1
102
RTVSPropertyOp51
 70
     0
102
RTVSPropertyOp52
 70
     0
102
RTVSPropertyOp53
 70
     1
102
RTVSPropertyOp54
 70
     1
102
RTVSPropertyOp55
 70
     1
102
RTVSPropertyOp56
 70
     1
102
RTVSPropertyOp57
 70
     1
102
RTVSPost2010Prop28
280
     0
102
RTVSPost2010PropOp28
 70
     1
102
RTVSPost2010Prop29
280
     1
102
RTVSPost2010PropOp29
 70
     1
102
RTVSPost2010Prop30
280
     1
102
RTVSPost2010PropOp30
 70
     1
102
RTVSPost2010Prop31
280
     0
102
RTVSPost2010PropOp31
 70
     1
102
RTVSPost2010Prop32
280
     0
102
RTVSPost2010PropOp32
 70
     1
102
RTVSPost2010Prop33
280
     0
102
RTVSPost2010PropOp33
 70
     1
102
RTVSPost2010Prop34
280
     0
102
RTVSPost2010PropOp34
 70
     1
102
RTVSPost2010Prop35
280
     0
102
RTVSPost2010PropOp35
 70
     1
102
RTVSPost2010Prop36
280
     0
102
RTVSPost2010PropOp36
 70
     1
102
RTVSPost2010Prop37
 90
       50
102
RTVSPost2010PropOp37
 70
     1
102
RTVSPost2010Prop38
140
0.0
102
RTVSPost2010PropOp38
 70
     1
102
RTVSPost2010Prop39
140
1.0
102
RTVSPost2010PropOp39
 70
     1
102
RTVSPost2010Prop40
 90
        0
102
RTVSPost2010PropOp40
 70
     1
102
RTVSPost2010Prop41ColorIndex
 90
       18
102
RTVSPost2010Prop41ColorRGB
 90
        0
102
RTVSPost2010PropOp41
 70
     1
102
RTVSPost2010Prop42
 90
       50
102
RTVSPost2010PropOp42
 70
     1
102
RTVSPost2010Prop43
 90
        3
102
RTVSPost2010PropOp43
 70
     1
102
RTVSPost2010Prop44ColorIndex
 90
        5
102
RTVSPost2010Prop44ColorRGB
 90
      255
102
RTVSPost2010PropOp44
 70
     1
102
RTVSPost2010Prop45
280
     0
102
RTVSPost2010PropOp45
 70
     1
102
RTVSPost2010Prop46
 90
       50
102
RTVSPost2010PropOp46
 70
     1
102
RTVSPost2010Prop47
 90
       50
102
RTVSPost2010PropOp47
 70
     1
102
RTVSPost2010Prop48
 90
       50
102
RTVSPost2010PropOp48
 70
     1
102
RTVSPost2010Prop49
280
     0
102
RTVSPost2010PropOp49
 70
     1
102
RTVSPost2010Prop50
 90
       50
102
RTVSPost2010PropOp50
 70
     1
102
RTVSPost2010Prop51ColorIndex
 90
      256
102
RTVSPost2010Prop51ColorRGB
 90
-16777216
102
RTVSPost2010PropOp51
 70
     0
102
RTVSPost2010Prop52
140
1.0
102
RTVSPost2010PropOp52
 70
     0
102
RTVSPost2010Prop53
 90
        2
102
RTVSPost2010PropOp53
 70
     1
102
RTVSPost2010Prop54
  1
strokes_ogs.tif
102
RTVSPost2010PropOp54
 70
     1
102
RTVSPost2010Prop55
280
     0
102
RTVSPost2010PropOp55
 70
     1
102
RTVSPost2010Prop56
140
1.0
102
RTVSPost2010PropOp56
 70
     1
102
RTVSPost2010Prop57
140
1.0
102
RTVSPost2010PropOp57
 70
     1
  0
XRECORD
  5
B0
102
{ACAD_REACTORS
330
AF
102
}
330
AF
100
AcDbXrecord
280
     1
102
RTVSPropertyOp0
 70
     1
102
RTVSPropertyOp1
 70
     1
102
RTVSPropertyOp2
 70
     1
102
RTVSPropertyOp3
 70
     1
102
RTVSPropertyOp4
 70
     1
102
RTVSPropertyOp5
 70
     1
102
RTVSPropertyOp6
 70
     1
102
RTVSPropertyOp7
 70
     1
102
RTVSPropertyOp8
 70
     1
102
RTVSPropertyOp9
 70
     1
102
RTVSPropertyOp10
 70
     1
102
RTVSPropertyOp11
 70
     1
102
RTVSPropertyOp12
 70
     1
102
RTVSPropertyOp13
 70
     1
102
RTVSPropertyOp14
 70
     1
102
RTVSPropertyOp15
 70
     1
102
RTVSPropertyOp16
 70
     1
102
RTVSPropertyOp17
 70
     1
102
RTVSPropertyOp18
 70
     1
102
RTVSPropertyOp19
 70
     1
102
RTVSPropertyOp20
 70
     1
102
RTVSPropertyOp21
 70
     1
102
RTVSPropertyOp22
 70
     1
102
RTVSPropertyOp23
 70
     1
102
RTVSPropertyOp24
 70
     1
102
RTVSPropertyOp25
 70
     1
102
RTVSPropertyOp26
 70
     1
102
RTVSPropertyOp27
 70
     1
102
RTVSPropertyOp28
 70
     1
102
RTVSPropertyOp29
 70
     1
102
RTVSPropertyOp30
 70
     1
102
RTVSPropertyOp31
 70
     1
102
RTVSPropertyOp32
 70
     1
102
RTVSPropertyOp33
 70
     1
102
RTVSPropertyOp34
 70
     1
102
RTVSPropertyOp35
 70
     1
102
RTVSPropertyOp36
 70
     1
102
RTVSPropertyOp37
 70
     1
102
RTVSPropertyOp38
 70
     1
102
RTVSPropertyOp39
 70
     1
102
RTVSPropertyOp40
 70
     1
102
RTVSPropertyOp41
 70
     1
102
RTVSPropertyOp42
 70
     1
102
RTVSPropertyOp43
 70
     1
102
RTVSPropertyOp44
 70
     1
102
RTVSPropertyOp45
 70
     1
102
RTVSPropertyOp46
 70
     1
102
RTVSPropertyOp47
 70
     1
102
RTVSPropertyOp48
 70
     1
102
RTVSPropertyOp49
 70
     1
102
RTVSPropertyOp50
 70
     1
102
RTVSPropertyOp51
 70
     0
102
RTVSPropertyOp52
 70
     0
102
RTVSPropertyOp53
 70
     1
102
RTVSPropertyOp54
 70
     1
102
RTVSPropertyOp55
 70
     1
102
RTVSPropertyOp56
 70
     1
102
RTVSPropertyOp57
 70
     1
102
RTVSPost2010Prop28
280
     0
102
RTVSPost2010PropOp28
 70
     1
102
RTVSPost2010Prop29
280
     1
102
RTVSPost2010PropOp29
 70
     1
102
RTVSPost2010Prop30
280
     1
102
RTVSPost2010PropOp30
 70
     1
102
RTVSPost2010Prop31
280
     0
102
RTVSPost2010PropOp31
 70
     1
102
RTVSPost2010Prop32
280
     0
102
RTVSPost2010PropOp32
 70
     1
102
RTVSPost2010Prop33
280
     0
102
RTVSPost2010PropOp33
 70
     1
102
RTVSPost2010Prop34
280
     0
102
RTVSPost2010PropOp34
 70
     1
102
RTVSPost2010Prop35
280
     0
102
RTVSPost2010PropOp35
 70
     1
102
RTVSPost2010Prop36
280
     0
102
RTVSPost2010PropOp36
 70
     1
102
RTVSPost2010Prop37
 90
       50
102
RTVSPost2010PropOp37
 70
     1
102
RTVSPost2010Prop38
140
0.0
102
RTVSPost2010PropOp38
 70
     1
102
RTVSPost2010Prop39
140
1.0
102
RTVSPost2010PropOp39
 70
     1
102
RTVSPost2010Prop40
 90
        0
102
RTVSPost2010PropOp40
 70
     1
102
RTVSPost2010Prop41ColorIndex
 90
       18
102
RTVSPost2010Prop41ColorRGB
 90
        0
102
RTVSPost2010PropOp41
 70
     1
102
RTVSPost2010Prop42
 90
       50
102
RTVSPost2010PropOp42
 70
     1
102
RTVSPost2010Prop43
 90
        3
102
RTVSPost2010PropOp43
 70
     1
102
RTVSPost2010Prop44ColorIndex
 90
        5
102
RTVSPost2010Prop44ColorRGB
 90
      255
102
RTVSPost2010PropOp44
 70
     1
102
RTVSPost2010Prop45
280
     0
102
RTVSPost2010PropOp45
 70
     1
102
RTVSPost2010Prop46
 90
       50
102
RTVSPost2010PropOp46
 70
     1
102
RTVSPost2010Prop47
 90
       50
102
RTVSPost2010PropOp47
 70
     1
102
RTVSPost2010Prop48
 90
       50
102
RTVSPost2010PropOp48
 70
     1
102
RTVSPost2010Prop49
280
     0
102
RTVSPost2010PropOp49
 70
     1
102
RTVSPost2010Prop50
 90
       50
102
RTVSPost2010PropOp50
 70
     1
102
RTVSPost2010Prop51ColorIndex
 90
      256
102
RTVSPost2010Prop51ColorRGB
 90
-16777216
102
RTVSPost2010PropOp51
 70
     0
102
RTVSPost2010Prop52
140
1.0
102
RTVSPost2010PropOp52
 70
     0
102
RTVSPost2010Prop53
 90
        2
102
RTVSPost2010PropOp53
 70
     1
102
RTVSPost2010Prop54
  1
strokes_ogs.tif
102
RTVSPost2010PropOp54
 70
     1
102
RTVSPost2010Prop55
280
     0
102
RTVSPost2010PropOp55
 70
     1
102
RTVSPost2010Prop56
140
1.0
102
RTVSPost2010PropOp56
 70
     1
102
RTVSPost2010Prop57
140
1.0
102
RTVSPost2010PropOp57
 70
     1
  0
XRECORD
  5
B2
102
{ACAD_REACTORS
330
B1
102
}
330
B1
100
AcDbXrecord
280
     1
102
RTVSPropertyOp0
 70
     1
102
RTVSPropertyOp1
 70
     1
102
RTVSPropertyOp2
 70
     1
102
RTVSPropertyOp3
 70
     1
102
RTVSPropertyOp4
 70
     1
102
RTVSPropertyOp5
 70
     1
102
RTVSPropertyOp6
 70
     1
102
RTVSPropertyOp7
 70
     1
102
RTVSPropertyOp8
 70
     1
102
RTVSPropertyOp9
 70
     1
102
RTVSPropertyOp10
 70
     1
102
RTVSPropertyOp11
 70
     1
102
RTVSPropertyOp12
 70
     1
102
RTVSPropertyOp13
 70
     1
102
RTVSPropertyOp14
 70
     1
102
RTVSPropertyOp15
 70
     1
102
RTVSPropertyOp16
 70
     1
102
RTVSPropertyOp17
 70
     1
102
RTVSPropertyOp18
 70
     1
102
RTVSPropertyOp19
 70
     1
102
RTVSPropertyOp20
 70
     1
102
RTVSPropertyOp21
 70
     1
102
RTVSPropertyOp22
 70
     1
102
RTVSPropertyOp23
 70
     1
102
RTVSPropertyOp24
 70
     1
102
RTVSPropertyOp25
 70
     1
102
RTVSPropertyOp26
 70
     1
102
RTVSPropertyOp27
 70
     1
102
RTVSPropertyOp28
 70
     1
102
RTVSPropertyOp29
 70
     1
102
RTVSPropertyOp30
 70
     1
102
RTVSPropertyOp31
 70
     1
102
RTVSPropertyOp32
 70
     1
102
RTVSPropertyOp33
 70
     1
102
RTVSPropertyOp34
 70
     1
102
RTVSPropertyOp35
 70
     1
102
RTVSPropertyOp36
 70
     1
102
RTVSPropertyOp37
 70
     1
102
RTVSPropertyOp38
 70
     1
102
RTVSPropertyOp39
 70
     1
102
RTVSPropertyOp40
 70
     1
102
RTVSPropertyOp41
 70
     1
102
RTVSPropertyOp42
 70
     1
102
RTVSPropertyOp43
 70
     1
102
RTVSPropertyOp44
 70
     1
102
RTVSPropertyOp45
 70
     1
102
RTVSPropertyOp46
 70
     1
102
RTVSPropertyOp47
 70
     1
102
RTVSPropertyOp48
 70
     1
102
RTVSPropertyOp49
 70
     1
102
RTVSPropertyOp50
 70
     1
102
RTVSPropertyOp51
 70
     0
102
RTVSPropertyOp52
 70
     0
102
RTVSPropertyOp53
 70
     1
102
RTVSPropertyOp54
 70
     1
102
RTVSPropertyOp55
 70
     1
102
RTVSPropertyOp56
 70
     1
102
RTVSPropertyOp57
 70
     1
102
RTVSPost2010Prop28
280
     0
102
RTVSPost2010PropOp28
 70
     1
102
RTVSPost2010Prop29
280
     1
102
RTVSPost2010PropOp29
 70
     1
102
RTVSPost2010Prop30
280
     1
102
RTVSPost2010PropOp30
 70
     1
102
RTVSPost2010Prop31
280
     0
102
RTVSPost2010PropOp31
 70
     1
102
RTVSPost2010Prop32
280
     0
102
RTVSPost2010PropOp32
 70
     1
102
RTVSPost2010Prop33
280
     0
102
RTVSPost2010PropOp33
 70
     1
102
RTVSPost2010Prop34
280
     0
102
RTVSPost2010PropOp34
 70
     1
102
RTVSPost2010Prop35
280
     0
102
RTVSPost2010PropOp35
 70
     1
102
RTVSPost2010Prop36
280
     0
102
RTVSPost2010PropOp36
 70
     1
102
RTVSPost2010Prop37
 90
       50
102
RTVSPost2010PropOp37
 70
     1
102
RTVSPost2010Prop38
140
0.0
102
RTVSPost2010PropOp38
 70
     1
102
RTVSPost2010Prop39
140
1.0
102
RTVSPost2010PropOp39
 70
     1
102
RTVSPost2010Prop40
 90
        0
102
RTVSPost2010PropOp40
 70
     1
102
RTVSPost2010Prop41ColorIndex
 90
       18
102
RTVSPost2010Prop41ColorRGB
 90
        0
102
RTVSPost2010PropOp41
 70
     1
102
RTVSPost2010Prop42
 90
       50
102
RTVSPost2010PropOp42
 70
     1
102
RTVSPost2010Prop43
 90
        3
102
RTVSPost2010PropOp43
 70
     1
102
RTVSPost2010Prop44ColorIndex
 90
        5
102
RTVSPost2010Prop44ColorRGB
 90
      255
102
RTVSPost2010PropOp44
 70
     1
102
RTVSPost2010Prop45
280
     0
102
RTVSPost2010PropOp45
 70
     1
102
RTVSPost2010Prop46
 90
       50
102
RTVSPost2010PropOp46
 70
     1
102
RTVSPost2010Prop47
 90
       50
102
RTVSPost2010PropOp47
 70
     1
102
RTVSPost2010Prop48
 90
       50
102
RTVSPost2010PropOp48
 70
     1
102
RTVSPost2010Prop49
280
     0
102
RTVSPost2010PropOp49
 70
     1
102
RTVSPost2010Prop50
 90
       50
102
RTVSPost2010PropOp50
 70
     1
102
RTVSPost2010Prop51ColorIndex
 90
      256
102
RTVSPost2010Prop51ColorRGB
 90
-16777216
102
RTVSPost2010PropOp51
 70
     0
102
RTVSPost2010Prop52
140
1.0
102
RTVSPost2010PropOp52
 70
     0
102
RTVSPost2010Prop53
 90
        2
102
RTVSPost2010PropOp53
 70
     1
102
RTVSPost2010Prop54
  1
strokes_ogs.tif
102
RTVSPost2010PropOp54
 70
     1
102
RTVSPost2010Prop55
280
     0
102
RTVSPost2010PropOp55
 70
     1
102
RTVSPost2010Prop56
140
1.0
102
RTVSPost2010PropOp56
 70
     1
102
RTVSPost2010Prop57
140
1.0
102
RTVSPost2010PropOp57
 70
     1
  0
XRECORD
  5
B4
102
{ACAD_REACTORS
330
B3
102
}
330
B3
100
AcDbXrecord
280
     1
102
RTVSPropertyOp0
 70
     1
102
RTVSPropertyOp1
 70
     1
102
RTVSPropertyOp2
 70
     1
102
RTVSPropertyOp3
 70
     1
102
RTVSPropertyOp4
 70
     1
102
RTVSPropertyOp5
 70
     1
102
RTVSPropertyOp6
 70
     1
102
RTVSPropertyOp7
 70
     1
102
RTVSPropertyOp8
 70
     1
102
RTVSPropertyOp9
 70
     1
102
RTVSPropertyOp10
 70
     1
102
RTVSPropertyOp11
 70
     1
102
RTVSPropertyOp12
 70
     1
102
RTVSPropertyOp13
 70
     1
102
RTVSPropertyOp14
 70
     1
102
RTVSPropertyOp15
 70
     1
102
RTVSPropertyOp16
 70
     1
102
RTVSPropertyOp17
 70
     1
102
RTVSPropertyOp18
 70
     1
102
RTVSPropertyOp19
 70
     1
102
RTVSPropertyOp20
 70
     1
102
RTVSPropertyOp21
 70
     1
102
RTVSPropertyOp22
 70
     1
102
RTVSPropertyOp23
 70
     1
102
RTVSPropertyOp24
 70
     1
102
RTVSPropertyOp25
 70
     1
102
RTVSPropertyOp26
 70
     1
102
RTVSPropertyOp27
 70
     1
102
RTVSPropertyOp28
 70
     1
102
RTVSPropertyOp29
 70
     1
102
RTVSPropertyOp30
 70
     1
102
RTVSPropertyOp31
 70
     1
102
RTVSPropertyOp32
 70
     1
102
RTVSPropertyOp33
 70
     1
102
RTVSPropertyOp34
 70
     1
102
RTVSPropertyOp35
 70
     1
102
RTVSPropertyOp36
 70
     1
102
RTVSPropertyOp37
 70
     1
102
RTVSPropertyOp38
 70
     1
102
RTVSPropertyOp39
 70
     1
102
RTVSPropertyOp40
 70
     1
102
RTVSPropertyOp41
 70
     1
102
RTVSPropertyOp42
 70
     1
102
RTVSPropertyOp43
 70
     1
102
RTVSPropertyOp44
 70
     1
102
RTVSPropertyOp45
 70
     1
102
RTVSPropertyOp46
 70
     1
102
RTVSPropertyOp47
 70
     1
102
RTVSPropertyOp48
 70
     1
102
RTVSPropertyOp49
 70
     1
102
RTVSPropertyOp50
 70
     1
102
RTVSPropertyOp51
 70
     0
102
RTVSPropertyOp52
 70
     0
102
RTVSPropertyOp53
 70
     1
102
RTVSPropertyOp54
 70
     1
102
RTVSPropertyOp55
 70
     1
102
RTVSPropertyOp56
 70
     1
102
RTVSPropertyOp57
 70
     1
102
RTVSPost2010Prop28
280
     0
102
RTVSPost2010PropOp28
 70
     1
102
RTVSPost2010Prop29
280
     1
102
RTVSPost2010PropOp29
 70
     1
102
RTVSPost2010Prop30
280
     1
102
RTVSPost2010PropOp30
 70
     1
102
RTVSPost2010Prop31
280
     0
102
RTVSPost2010PropOp31
 70
     1
102
RTVSPost2010Prop32
280
     0
102
RTVSPost2010PropOp32
 70
     1
102
RTVSPost2010Prop33
280
     0
102
RTVSPost2010PropOp33
 70
     1
102
RTVSPost2010Prop34
280
     0
102
RTVSPost2010PropOp34
 70
     1
102
RTVSPost2010Prop35
280
     0
102
RTVSPost2010PropOp35
 70
     1
102
RTVSPost2010Prop36
280
     0
102
RTVSPost2010PropOp36
 70
     1
102
RTVSPost2010Prop37
 90
       50
102
RTVSPost2010PropOp37
 70
     1
102
RTVSPost2010Prop38
140
0.0
102
RTVSPost2010PropOp38
 70
     1
102
RTVSPost2010Prop39
140
1.0
102
RTVSPost2010PropOp39
 70
     1
102
RTVSPost2010Prop40
 90
        0
102
RTVSPost2010PropOp40
 70
     1
102
RTVSPost2010Prop41ColorIndex
 90
       18
102
RTVSPost2010Prop41ColorRGB
 90
        0
102
RTVSPost2010PropOp41
 70
     1
102
RTVSPost2010Prop42
 90
       50
102
RTVSPost2010PropOp42
 70
     1
102
RTVSPost2010Prop43
 90
        3
102
RTVSPost2010PropOp43
 70
     1
102
RTVSPost2010Prop44ColorIndex
 90
        5
102
RTVSPost2010Prop44ColorRGB
 90
      255
102
RTVSPost2010PropOp44
 70
     1
102
RTVSPost2010Prop45
280
     0
102
RTVSPost2010PropOp45
 70
     1
102
RTVSPost2010Prop46
 90
       50
102
RTVSPost2010PropOp46
 70
     1
102
RTVSPost2010Prop47
 90
       50
102
RTVSPost2010PropOp47
 70
     1
102
RTVSPost2010Prop48
 90
       50
102
RTVSPost2010PropOp48
 70
     1
102
RTVSPost2010Prop49
280
     0
102
RTVSPost2010PropOp49
 70
     1
102
RTVSPost2010Prop50
 90
       50
102
RTVSPost2010PropOp50
 70
     1
102
RTVSPost2010Prop51ColorIndex
 90
      256
102
RTVSPost2010Prop51ColorRGB
 90
-16777216
102
RTVSPost2010PropOp51
 70
     0
102
RTVSPost2010Prop52
140
1.0
102
RTVSPost2010PropOp52
 70
     0
102
RTVSPost2010Prop53
 90
        2
102
RTVSPost2010PropOp53
 70
     1
102
RTVSPost2010Prop54
  1
strokes_ogs.tif
102
RTVSPost2010PropOp54
 70
     1
102
RTVSPost2010Prop55
280
     0
102
RTVSPost2010PropOp55
 70
     1
102
RTVSPost2010Prop56
140
1.0
102
RTVSPost2010PropOp56
 70
     1
102
RTVSPost2010Prop57
140
1.0
102
RTVSPost2010PropOp57
 70
     1
  0
XRECORD
  5
BA
102
{ACAD_REACTORS
330
B9
102
}
330
B9
100
AcDbXrecord
280
     1
102
RTVSPropertyOp0
 70
     1
102
RTVSPropertyOp1
 70
     1
102
RTVSPropertyOp2
 70
     1
102
RTVSPropertyOp3
 70
     1
102
RTVSPropertyOp4
 70
     1
102
RTVSPropertyOp5
 70
     1
102
RTVSPropertyOp6
 70
     1
102
RTVSPropertyOp7
 70
     1
102
RTVSPropertyOp8
 70
     1
102
RTVSPropertyOp9
 70
     1
102
RTVSPropertyOp10
 70
     1
102
RTVSPropertyOp11
 70
     1
102
RTVSPropertyOp12
 70
     1
102
RTVSPropertyOp13
 70
     1
102
RTVSPropertyOp14
 70
     1
102
RTVSPropertyOp15
 70
     1
102
RTVSPropertyOp16
 70
     1
102
RTVSPropertyOp17
 70
     1
102
RTVSPropertyOp18
 70
     1
102
RTVSPropertyOp19
 70
     1
102
RTVSPropertyOp20
 70
     1
102
RTVSPropertyOp21
 70
     1
102
RTVSPropertyOp22
 70
     1
102
RTVSPropertyOp23
 70
     1
102
RTVSPropertyOp24
 70
     1
102
RTVSPropertyOp25
 70
     1
102
RTVSPropertyOp26
 70
     1
102
RTVSPropertyOp27
 70
     1
102
RTVSPropertyOp28
 70
     1
102
RTVSPropertyOp29
 70
     1
102
RTVSPropertyOp30
 70
     1
102
RTVSPropertyOp31
 70
     1
102
RTVSPropertyOp32
 70
     1
102
RTVSPropertyOp33
 70
     1
102
RTVSPropertyOp34
 70
     1
102
RTVSPropertyOp35
 70
     1
102
RTVSPropertyOp36
 70
     1
102
RTVSPropertyOp37
 70
     1
102
RTVSPropertyOp38
 70
     1
102
RTVSPropertyOp39
 70
     1
102
RTVSPropertyOp40
 70
     1
102
RTVSPropertyOp41
 70
     1
102
RTVSPropertyOp42
 70
     1
102
RTVSPropertyOp43
 70
     1
102
RTVSPropertyOp44
 70
     1
102
RTVSPropertyOp45
 70
     1
102
RTVSPropertyOp46
 70
     1
102
RTVSPropertyOp47
 70
     1
102
RTVSPropertyOp48
 70
     1
102
RTVSPropertyOp49
 70
     1
102
RTVSPropertyOp50
 70
     1
102
RTVSPropertyOp51
 70
     0
102
RTVSPropertyOp52
 70
     0
102
RTVSPropertyOp53
 70
     1
102
RTVSPropertyOp54
 70
     1
102
RTVSPropertyOp55
 70
     1
102
RTVSPropertyOp56
 70
     1
102
RTVSPropertyOp57
 70
     1
102
RTVSPost2010Prop28
280
     0
102
RTVSPost2010PropOp28
 70
     1
102
RTVSPost2010Prop29
280
     1
102
RTVSPost2010PropOp29
 70
     1
102
RTVSPost2010Prop30
280
     1
102
RTVSPost2010PropOp30
 70
     1
102
RTVSPost2010Prop31
280
     0
102
RTVSPost2010PropOp31
 70
     1
102
RTVSPost2010Prop32
280
     0
102
RTVSPost2010PropOp32
 70
     1
102
RTVSPost2010Prop33
280
     0
102
RTVSPost2010PropOp33
 70
     1
102
RTVSPost2010Prop34
280
     0
102
RTVSPost2010PropOp34
 70
     1
102
RTVSPost2010Prop35
280
     0
102
RTVSPost2010PropOp35
 70
     1
102
RTVSPost2010Prop36
280
     0
102
RTVSPost2010PropOp36
 70
     1
102
RTVSPost2010Prop37
 90
       50
102
RTVSPost2010PropOp37
 70
     1
102
RTVSPost2010Prop38
140
0.0
102
RTVSPost2010PropOp38
 70
     1
102
RTVSPost2010Prop39
140
1.0
102
RTVSPost2010PropOp39
 70
     1
102
RTVSPost2010Prop40
 90
        0
102
RTVSPost2010PropOp40
 70
     1
102
RTVSPost2010Prop41ColorIndex
 90
       18
102
RTVSPost2010Prop41ColorRGB
 90
        0
102
RTVSPost2010PropOp41
 70
     1
102
RTVSPost2010Prop42
 90
       50
102
RTVSPost2010PropOp42
 70
     1
102
RTVSPost2010Prop43
 90
        3
102
RTVSPost2010PropOp43
 70
     1
102
RTVSPost2010Prop44ColorIndex
 90
        5
102
RTVSPost2010Prop44ColorRGB
 90
      255
102
RTVSPost2010PropOp44
 70
     1
102
RTVSPost2010Prop45
280
     0
102
RTVSPost2010PropOp45
 70
     1
102
RTVSPost2010Prop46
 90
       50
102
RTVSPost2010PropOp46
 70
     1
102
RTVSPost2010Prop47
 90
       50
102
RTVSPost2010PropOp47
 70
     1
102
RTVSPost2010Prop48
 90
       50
102
RTVSPost2010PropOp48
 70
     1
102
RTVSPost2010Prop49
280
     0
102
RTVSPost2010PropOp49
 70
     1
102
RTVSPost2010Prop50
 90
       50
102
RTVSPost2010PropOp50
 70
     1
102
RTVSPost2010Prop51ColorIndex
 90
      256
102
RTVSPost2010Prop51ColorRGB
 90
-16777216
102
RTVSPost2010PropOp51
 70
     0
102
RTVSPost2010Prop52
140
1.0
102
RTVSPost2010PropOp52
 70
     0
102
RTVSPost2010Prop53
 90
        2
102
RTVSPost2010PropOp53
 70
     1
102
RTVSPost2010Prop54
  1
strokes_ogs.tif
102
RTVSPost2010PropOp54
 70
     1
102
RTVSPost2010Prop55
280
     0
102
RTVSPost2010PropOp55
 70
     1
102
RTVSPost2010Prop56
140
1.0
102
RTVSPost2010PropOp56
 70
     1
102
RTVSPost2010Prop57
140
1.0
102
RTVSPost2010PropOp57
 70
     1
  0
XRECORD
  5
CE
102
{ACAD_REACTORS
330
CD
102
}
330
CD
100
AcDbXrecord
280
     1
102
RTVSPropertyOp0
 70
     0
102
RTVSPropertyOp1
 70
     0
102
RTVSPropertyOp2
 70
     0
102
RTVSPropertyOp3
 70
     0
102
RTVSPropertyOp4
 70
     0
102
RTVSPropertyOp5
 70
     0
102
RTVSPropertyOp6
 70
     0
102
RTVSPropertyOp7
 70
     0
102
RTVSPropertyOp8
 70
     0
102
RTVSPropertyOp9
 70
     0
102
RTVSPropertyOp10
 70
     0
102
RTVSPropertyOp11
 70
     0
102
RTVSPropertyOp12
 70
     0
102
RTVSPropertyOp13
 70
     0
102
RTVSPropertyOp14
 70
     2
102
RTVSPropertyOp15
 70
     0
102
RTVSPropertyOp16
 70
     0
102
RTVSPropertyOp17
 70
     0
102
RTVSPropertyOp18
 70
     0
102
RTVSPropertyOp19
 70
     0
102
RTVSPropertyOp20
 70
     0
102
RTVSPropertyOp21
 70
     0
102
RTVSPropertyOp22
 70
     0
102
RTVSPropertyOp23
 70
     0
102
RTVSPropertyOp24
 70
     0
102
RTVSPropertyOp25
 70
     0
102
RTVSPropertyOp26
 70
     0
102
RTVSPropertyOp27
 70
     0
102
RTVSPropertyOp28
 70
     0
102
RTVSPropertyOp29
 70
     0
102
RTVSPropertyOp30
 70
     0
102
RTVSPropertyOp31
 70
     0
102
RTVSPropertyOp32
 70
     0
102
RTVSPropertyOp33
 70
     0
102
RTVSPropertyOp34
 70
     0
102
RTVSPropertyOp35
 70
     0
102
RTVSPropertyOp36
 70
     0
102
RTVSPropertyOp37
 70
     0
102
RTVSPropertyOp38
 70
     0
102
RTVSPropertyOp39
 70
     0
102
RTVSPropertyOp40
 70
     0
102
RTVSPropertyOp41
 70
     0
102
RTVSPropertyOp42
 70
     0
102
RTVSPropertyOp43
 70
     0
102
RTVSPropertyOp44
 70
     0
102
RTVSPropertyOp45
 70
     0
102
RTVSPropertyOp46
 70
     0
102
RTVSPropertyOp47
 70
     0
102
RTVSPropertyOp48
 70
     0
102
RTVSPropertyOp49
 70
     0
102
RTVSPropertyOp50
 70
     0
102
RTVSPropertyOp51
 70
     0
102
RTVSPropertyOp52
 70
     0
102
RTVSPropertyOp53
 70
     0
102
RTVSPropertyOp54
 70
     0
102
RTVSPropertyOp55
 70
     0
102
RTVSPropertyOp56
 70
     0
102
RTVSPropertyOp57
 70
     0
102
RTVSPost2010Prop28
280
     0
102
RTVSPost2010PropOp28
 70
     0
102
RTVSPost2010Prop29
280
     1
102
RTVSPost2010PropOp29
 70
     0
102
RTVSPost2010Prop30
280
     1
102
RTVSPost2010PropOp30
 70
     0
102
RTVSPost2010Prop31
280
     0
102
RTVSPost2010PropOp31
 70
     0
102
RTVSPost2010Prop32
280
     0
102
RTVSPost2010PropOp32
 70
     0
102
RTVSPost2010Prop33
280
     0
102
RTVSPost2010PropOp33
 70
     0
102
RTVSPost2010Prop34
280
     0
102
RTVSPost2010PropOp34
 70
     0
102
RTVSPost2010Prop35
280
     0
102
RTVSPost2010PropOp35
 70
     0
102
RTVSPost2010Prop36
280
     0
102
RTVSPost2010PropOp36
 70
     0
102
RTVSPost2010Prop37
 90
       50
102
RTVSPost2010PropOp37
 70
     0
102
RTVSPost2010Prop38
140
0.0
102
RTVSPost2010PropOp38
 70
     0
102
RTVSPost2010Prop39
140
1.0
102
RTVSPost2010PropOp39
 70
     0
102
RTVSPost2010Prop40
 90
        0
102
RTVSPost2010PropOp40
 70
     0
102
RTVSPost2010Prop41ColorIndex
 90
       18
102
RTVSPost2010Prop41ColorRGB
 90
        0
102
RTVSPost2010PropOp41
 70
     0
102
RTVSPost2010Prop42
 90
       50
102
RTVSPost2010PropOp42
 70
     0
102
RTVSPost2010Prop43
 90
        3
102
RTVSPost2010PropOp43
 70
     0
102
RTVSPost2010Prop44ColorIndex
 90
        5
102
RTVSPost2010Prop44ColorRGB
 90
      255
102
RTVSPost2010PropOp44
 70
     0
102
RTVSPost2010Prop45
280
     0
102
RTVSPost2010PropOp45
 70
     0
102
RTVSPost2010Prop46
 90
       50
102
RTVSPost2010PropOp46
 70
     0
102
RTVSPost2010Prop47
 90
       50
102
RTVSPost2010PropOp47
 70
     0
102
RTVSPost2010Prop48
 90
       50
102
RTVSPost2010PropOp48
 70
     0
102
RTVSPost2010Prop49
280
     0
102
RTVSPost2010PropOp49
 70
     0
102
RTVSPost2010Prop50
 90
       50
102
RTVSPost2010PropOp50
 70
     0
102
RTVSPost2010Prop51ColorIndex
 90
      256
102
RTVSPost2010Prop51ColorRGB
 90
-16777216
102
RTVSPost2010PropOp51
 70
     0
102
RTVSPost2010Prop52
140
1.0
102
RTVSPost2010PropOp52
 70
     0
102
RTVSPost2010Prop53
 90
        2
102
RTVSPost2010PropOp53
 70
     0
102
RTVSPost2010Prop54
  1
strokes_ogs.tif
102
RTVSPost2010PropOp54
 70
     0
102
RTVSPost2010Prop55
280
     0
102
RTVSPost2010PropOp55
 70
     0
102
RTVSPost2010Prop56
140
1.0
102
RTVSPost2010PropOp56
 70
     0
102
RTVSPost2010Prop57
140
1.0
102
RTVSPost2010PropOp57
 70
     0
  0
XRECORD
  5
C8
102
{ACAD_REACTORS
330
C7
102
}
330
C7
100
AcDbXrecord
280
     1
102
RTVSPropertyOp0
 70
     1
102
RTVSPropertyOp1
 70
     1
102
RTVSPropertyOp2
 70
     1
102
RTVSPropertyOp3
 70
     1
102
RTVSPropertyOp4
 70
     1
102
RTVSPropertyOp5
 70
     1
102
RTVSPropertyOp6
 70
     1
102
RTVSPropertyOp7
 70
     1
102
RTVSPropertyOp8
 70
     1
102
RTVSPropertyOp9
 70
     1
102
RTVSPropertyOp10
 70
     1
102
RTVSPropertyOp11
 70
     1
102
RTVSPropertyOp12
 70
     1
102
RTVSPropertyOp13
 70
     1
102
RTVSPropertyOp14
 70
     1
102
RTVSPropertyOp15
 70
     1
102
RTVSPropertyOp16
 70
     1
102
RTVSPropertyOp17
 70
     1
102
RTVSPropertyOp18
 70
     1
102
RTVSPropertyOp19
 70
     1
102
RTVSPropertyOp20
 70
     1
102
RTVSPropertyOp21
 70
     1
102
RTVSPropertyOp22
 70
     1
102
RTVSPropertyOp23
 70
     1
102
RTVSPropertyOp24
 70
     1
102
RTVSPropertyOp25
 70
     1
102
RTVSPropertyOp26
 70
     1
102
RTVSPropertyOp27
 70
     1
102
RTVSPropertyOp28
 70
     1
102
RTVSPropertyOp29
 70
     1
102
RTVSPropertyOp30
 70
     1
102
RTVSPropertyOp31
 70
     1
102
RTVSPropertyOp32
 70
     1
102
RTVSPropertyOp33
 70
     1
102
RTVSPropertyOp34
 70
     1
102
RTVSPropertyOp35
 70
     1
102
RTVSPropertyOp36
 70
     1
102
RTVSPropertyOp37
 70
     1
102
RTVSPropertyOp38
 70
     1
102
RTVSPropertyOp39
 70
     1
102
RTVSPropertyOp40
 70
     1
102
RTVSPropertyOp41
 70
     1
102
RTVSPropertyOp42
 70
     1
102
RTVSPropertyOp43
 70
     1
102
RTVSPropertyOp44
 70
     1
102
RTVSPropertyOp45
 70
     1
102
RTVSPropertyOp46
 70
     1
102
RTVSPropertyOp47
 70
     1
102
RTVSPropertyOp48
 70
     1
102
RTVSPropertyOp49
 70
     1
102
RTVSPropertyOp50
 70
     1
102
RTVSPropertyOp51
 70
     0
102
RTVSPropertyOp52
 70
     0
102
RTVSPropertyOp53
 70
     1
102
RTVSPropertyOp54
 70
     1
102
RTVSPropertyOp55
 70
     1
102
RTVSPropertyOp56
 70
     1
102
RTVSPropertyOp57
 70
     1
102
RTVSPost2010Prop28
280
     0
102
RTVSPost2010PropOp28
 70
     1
102
RTVSPost2010Prop29
280
     1
102
RTVSPost2010PropOp29
 70
     1
102
RTVSPost2010Prop30
280
     1
102
RTVSPost2010PropOp30
 70
     1
102
RTVSPost2010Prop31
280
     0
102
RTVSPost2010PropOp31
 70
     1
102
RTVSPost2010Prop32
280
     0
102
RTVSPost2010PropOp32
 70
     1
102
RTVSPost2010Prop33
280
     0
102
RTVSPost2010PropOp33
 70
     1
102
RTVSPost2010Prop34
280
     0
102
RTVSPost2010PropOp34
 70
     1
102
RTVSPost2010Prop35
280
     0
102
RTVSPost2010PropOp35
 70
     1
102
RTVSPost2010Prop36
280
     0
102
RTVSPost2010PropOp36
 70
     1
102
RTVSPost2010Prop37
 90
       50
102
RTVSPost2010PropOp37
 70
     1
102
RTVSPost2010Prop38
140
0.0
102
RTVSPost2010PropOp38
 70
     1
102
RTVSPost2010Prop39
140
1.0
102
RTVSPost2010PropOp39
 70
     1
102
RTVSPost2010Prop40
 90
        0
102
RTVSPost2010PropOp40
 70
     1
102
RTVSPost2010Prop41ColorIndex
 90
       18
102
RTVSPost2010Prop41ColorRGB
 90
        0
102
RTVSPost2010PropOp41
 70
     1
102
RTVSPost2010Prop42
 90
       50
102
RTVSPost2010PropOp42
 70
     1
102
RTVSPost2010Prop43
 90
        3
102
RTVSPost2010PropOp43
 70
     1
102
RTVSPost2010Prop44ColorIndex
 90
        5
102
RTVSPost2010Prop44ColorRGB
 90
      255
102
RTVSPost2010PropOp44
 70
     1
102
RTVSPost2010Prop45
280
     0
102
RTVSPost2010PropOp45
 70
     1
102
RTVSPost2010Prop46
 90
       50
102
RTVSPost2010PropOp46
 70
     1
102
RTVSPost2010Prop47
 90
       50
102
RTVSPost2010PropOp47
 70
     1
102
RTVSPost2010Prop48
 90
       50
102
RTVSPost2010PropOp48
 70
     1
102
RTVSPost2010Prop49
280
     0
102
RTVSPost2010PropOp49
 70
     1
102
RTVSPost2010Prop50
 90
       50
102
RTVSPost2010PropOp50
 70
     1
102
RTVSPost2010Prop51ColorIndex
 90
      256
102
RTVSPost2010Prop51ColorRGB
 90
-16777216
102
RTVSPost2010PropOp51
 70
     0
102
RTVSPost2010Prop52
140
1.0
102
RTVSPost2010PropOp52
 70
     0
102
RTVSPost2010Prop53
 90
        2
102
RTVSPost2010PropOp53
 70
     1
102
RTVSPost2010Prop54
  1
strokes_ogs.tif
102
RTVSPost2010PropOp54
 70
     1
102
RTVSPost2010Prop55
280
     0
102
RTVSPost2010PropOp55
 70
     1
102
RTVSPost2010Prop56
140
1.0
102
RTVSPost2010PropOp56
 70
     1
102
RTVSPost2010Prop57
140
1.0
102
RTVSPost2010PropOp57
 70
     1
  0
XRECORD
  5
D0
102
{ACAD_REACTORS
330
CF
102
}
330
CF
100
AcDbXrecord
280
     1
102
RTVSPropertyOp0
 70
     0
102
RTVSPropertyOp1
 70
     0
102
RTVSPropertyOp2
 70
     0
102
RTVSPropertyOp3
 70
     0
102
RTVSPropertyOp4
 70
     0
102
RTVSPropertyOp5
 70
     0
102
RTVSPropertyOp6
 70
     0
102
RTVSPropertyOp7
 70
     0
102
RTVSPropertyOp8
 70
     0
102
RTVSPropertyOp9
 70
     0
102
RTVSPropertyOp10
 70
     0
102
RTVSPropertyOp11
 70
     0
102
RTVSPropertyOp12
 70
     0
102
RTVSPropertyOp13
 70
     0
102
RTVSPropertyOp14
 70
     2
102
RTVSPropertyOp15
 70
     0
102
RTVSPropertyOp16
 70
     0
102
RTVSPropertyOp17
 70
     0
102
RTVSPropertyOp18
 70
     0
102
RTVSPropertyOp19
 70
     0
102
RTVSPropertyOp20
 70
     0
102
RTVSPropertyOp21
 70
     0
102
RTVSPropertyOp22
 70
     0
102
RTVSPropertyOp23
 70
     0
102
RTVSPropertyOp24
 70
     0
102
RTVSPropertyOp25
 70
     0
102
RTVSPropertyOp26
 70
     0
102
RTVSPropertyOp27
 70
     0
102
RTVSPropertyOp28
 70
     0
102
RTVSPropertyOp29
 70
     0
102
RTVSPropertyOp30
 70
     0
102
RTVSPropertyOp31
 70
     0
102
RTVSPropertyOp32
 70
     0
102
RTVSPropertyOp33
 70
     0
102
RTVSPropertyOp34
 70
     0
102
RTVSPropertyOp35
 70
     0
102
RTVSPropertyOp36
 70
     0
102
RTVSPropertyOp37
 70
     0
102
RTVSPropertyOp38
 70
     0
102
RTVSPropertyOp39
 70
     0
102
RTVSPropertyOp40
 70
     0
102
RTVSPropertyOp41
 70
     0
102
RTVSPropertyOp42
 70
     0
102
RTVSPropertyOp43
 70
     0
102
RTVSPropertyOp44
 70
     0
102
RTVSPropertyOp45
 70
     0
102
RTVSPropertyOp46
 70
     0
102
RTVSPropertyOp47
 70
     0
102
RTVSPropertyOp48
 70
     0
102
RTVSPropertyOp49
 70
     0
102
RTVSPropertyOp50
 70
     0
102
RTVSPropertyOp51
 70
     0
102
RTVSPropertyOp52
 70
     0
102
RTVSPropertyOp53
 70
     0
102
RTVSPropertyOp54
 70
     0
102
RTVSPropertyOp55
 70
     0
102
RTVSPropertyOp56
 70
     0
102
RTVSPropertyOp57
 70
     0
102
RTVSPost2010Prop28
280
     0
102
RTVSPost2010PropOp28
 70
     0
102
RTVSPost2010Prop29
280
     1
102
RTVSPost2010PropOp29
 70
     0
102
RTVSPost2010Prop30
280
     1
102
RTVSPost2010PropOp30
 70
     0
102
RTVSPost2010Prop31
280
     0
102
RTVSPost2010PropOp31
 70
     0
102
RTVSPost2010Prop32
280
     0
102
RTVSPost2010PropOp32
 70
     0
102
RTVSPost2010Prop33
280
     0
102
RTVSPost2010PropOp33
 70
     0
102
RTVSPost2010Prop34
280
     0
102
RTVSPost2010PropOp34
 70
     0
102
RTVSPost2010Prop35
280
     0
102
RTVSPost2010PropOp35
 70
     0
102
RTVSPost2010Prop36
280
     0
102
RTVSPost2010PropOp36
 70
     0
102
RTVSPost2010Prop37
 90
       50
102
RTVSPost2010PropOp37
 70
     0
102
RTVSPost2010Prop38
140
0.0
102
RTVSPost2010PropOp38
 70
     0
102
RTVSPost2010Prop39
140
1.0
102
RTVSPost2010PropOp39
 70
     0
102
RTVSPost2010Prop40
 90
        0
102
RTVSPost2010PropOp40
 70
     0
102
RTVSPost2010Prop41ColorIndex
 90
       18
102
RTVSPost2010Prop41ColorRGB
 90
        0
102
RTVSPost2010PropOp41
 70
     0
102
RTVSPost2010Prop42
 90
       50
102
RTVSPost2010PropOp42
 70
     0
102
RTVSPost2010Prop43
 90
        3
102
RTVSPost2010PropOp43
 70
     0
102
RTVSPost2010Prop44ColorIndex
 90
        5
102
RTVSPost2010Prop44ColorRGB
 90
      255
102
RTVSPost2010PropOp44
 70
     0
102
RTVSPost2010Prop45
280
     0
102
RTVSPost2010PropOp45
 70
     0
102
RTVSPost2010Prop46
 90
       50
102
RTVSPost2010PropOp46
 70
     0
102
RTVSPost2010Prop47
 90
       50
102
RTVSPost2010PropOp47
 70
     0
102
RTVSPost2010Prop48
 90
       50
102
RTVSPost2010PropOp48
 70
     0
102
RTVSPost2010Prop49
280
     0
102
RTVSPost2010PropOp49
 70
     0
102
RTVSPost2010Prop50
 90
       50
102
RTVSPost2010PropOp50
 70
     0
102
RTVSPost2010Prop51ColorIndex
 90
      256
102
RTVSPost2010Prop51ColorRGB
 90
-16777216
102
RTVSPost2010PropOp51
 70
     0
102
RTVSPost2010Prop52
140
1.0
102
RTVSPost2010PropOp52
 70
     0
102
RTVSPost2010Prop53
 90
        2
102
RTVSPost2010PropOp53
 70
     0
102
RTVSPost2010Prop54
  1
strokes_ogs.tif
102
RTVSPost2010PropOp54
 70
     0
102
RTVSPost2010Prop55
280
     0
102
RTVSPost2010PropOp55
 70
     0
102
RTVSPost2010Prop56
140
1.0
102
RTVSPost2010PropOp56
 70
     0
102
RTVSPost2010Prop57
140
1.0
102
RTVSPost2010PropOp57
 70
     0
  0
XRECORD
  5
BE
102
{ACAD_REACTORS
330
BD
102
}
330
BD
100
AcDbXrecord
280
     1
102
RTVSPropertyOp0
 70
     1
102
RTVSPropertyOp1
 70
     1
102
RTVSPropertyOp2
 70
     1
102
RTVSPropertyOp3
 70
     1
102
RTVSPropertyOp4
 70
     1
102
RTVSPropertyOp5
 70
     1
102
RTVSPropertyOp6
 70
     1
102
RTVSPropertyOp7
 70
     1
102
RTVSPropertyOp8
 70
     1
102
RTVSPropertyOp9
 70
     1
102
RTVSPropertyOp10
 70
     1
102
RTVSPropertyOp11
 70
     1
102
RTVSPropertyOp12
 70
     1
102
RTVSPropertyOp13
 70
     1
102
RTVSPropertyOp14
 70
     1
102
RTVSPropertyOp15
 70
     1
102
RTVSPropertyOp16
 70
     1
102
RTVSPropertyOp17
 70
     1
102
RTVSPropertyOp18
 70
     1
102
RTVSPropertyOp19
 70
     1
102
RTVSPropertyOp20
 70
     1
102
RTVSPropertyOp21
 70
     1
102
RTVSPropertyOp22
 70
     1
102
RTVSPropertyOp23
 70
     1
102
RTVSPropertyOp24
 70
     1
102
RTVSPropertyOp25
 70
     1
102
RTVSPropertyOp26
 70
     1
102
RTVSPropertyOp27
 70
     1
102
RTVSPropertyOp28
 70
     1
102
RTVSPropertyOp29
 70
     1
102
RTVSPropertyOp30
 70
     1
102
RTVSPropertyOp31
 70
     1
102
RTVSPropertyOp32
 70
     1
102
RTVSPropertyOp33
 70
     1
102
RTVSPropertyOp34
 70
     1
102
RTVSPropertyOp35
 70
     1
102
RTVSPropertyOp36
 70
     1
102
RTVSPropertyOp37
 70
     1
102
RTVSPropertyOp38
 70
     1
102
RTVSPropertyOp39
 70
     1
102
RTVSPropertyOp40
 70
     1
102
RTVSPropertyOp41
 70
     1
102
RTVSPropertyOp42
 70
     1
102
RTVSPropertyOp43
 70
     1
102
RTVSPropertyOp44
 70
     1
102
RTVSPropertyOp45
 70
     1
102
RTVSPropertyOp46
 70
     1
102
RTVSPropertyOp47
 70
     1
102
RTVSPropertyOp48
 70
     1
102
RTVSPropertyOp49
 70
     1
102
RTVSPropertyOp50
 70
     1
102
RTVSPropertyOp51
 70
     0
102
RTVSPropertyOp52
 70
     0
102
RTVSPropertyOp53
 70
     1
102
RTVSPropertyOp54
 70
     1
102
RTVSPropertyOp55
 70
     1
102
RTVSPropertyOp56
 70
     1
102
RTVSPropertyOp57
 70
     1
102
RTVSPost2010Prop28
280
     0
102
RTVSPost2010PropOp28
 70
     1
102
RTVSPost2010Prop29
280
     1
102
RTVSPost2010PropOp29
 70
     1
102
RTVSPost2010Prop30
280
     1
102
RTVSPost2010PropOp30
 70
     1
102
RTVSPost2010Prop31
280
     0
102
RTVSPost2010PropOp31
 70
     1
102
RTVSPost2010Prop32
280
     0
102
RTVSPost2010PropOp32
 70
     1
102
RTVSPost2010Prop33
280
     0
102
RTVSPost2010PropOp33
 70
     1
102
RTVSPost2010Prop34
280
     0
102
RTVSPost2010PropOp34
 70
     1
102
RTVSPost2010Prop35
280
     0
102
RTVSPost2010PropOp35
 70
     1
102
RTVSPost2010Prop36
280
     0
102
RTVSPost2010PropOp36
 70
     1
102
RTVSPost2010Prop37
 90
       50
102
RTVSPost2010PropOp37
 70
     1
102
RTVSPost2010Prop38
140
0.0
102
RTVSPost2010PropOp38
 70
     1
102
RTVSPost2010Prop39
140
1.0
102
RTVSPost2010PropOp39
 70
     1
102
RTVSPost2010Prop40
 90
        0
102
RTVSPost2010PropOp40
 70
     1
102
RTVSPost2010Prop41ColorIndex
 90
       18
102
RTVSPost2010Prop41ColorRGB
 90
        0
102
RTVSPost2010PropOp41
 70
     1
102
RTVSPost2010Prop42
 90
       50
102
RTVSPost2010PropOp42
 70
     1
102
RTVSPost2010Prop43
 90
        3
102
RTVSPost2010PropOp43
 70
     1
102
RTVSPost2010Prop44ColorIndex
 90
        5
102
RTVSPost2010Prop44ColorRGB
 90
      255
102
RTVSPost2010PropOp44
 70
     1
102
RTVSPost2010Prop45
280
     0
102
RTVSPost2010PropOp45
 70
     1
102
RTVSPost2010Prop46
 90
       50
102
RTVSPost2010PropOp46
 70
     1
102
RTVSPost2010Prop47
 90
       50
102
RTVSPost2010PropOp47
 70
     1
102
RTVSPost2010Prop48
 90
       50
102
RTVSPost2010PropOp48
 70
     1
102
RTVSPost2010Prop49
280
     0
102
RTVSPost2010PropOp49
 70
     1
102
RTVSPost2010Prop50
 90
       50
102
RTVSPost2010PropOp50
 70
     1
102
RTVSPost2010Prop51ColorIndex
 90
      256
102
RTVSPost2010Prop51ColorRGB
 90
-16777216
102
RTVSPost2010PropOp51
 70
     0
102
RTVSPost2010Prop52
140
1.0
102
RTVSPost2010PropOp52
 70
     0
102
RTVSPost2010Prop53
 90
        2
102
RTVSPost2010PropOp53
 70
     1
102
RTVSPost2010Prop54
  1
strokes_ogs.tif
102
RTVSPost2010PropOp54
 70
     1
102
RTVSPost2010Prop55
280
     0
102
RTVSPost2010PropOp55
 70
     1
102
RTVSPost2010Prop56
140
1.0
102
RTVSPost2010PropOp56
 70
     1
102
RTVSPost2010Prop57
140
1.0
102
RTVSPost2010PropOp57
 70
     1
  0
XRECORD
  5
DC
102
{ACAD_REACTORS
330
DB
102
}
330
DB
100
AcDbXrecord
280
     1
102
RTVSPropertyOp0
 70
     1
102
RTVSPropertyOp1
 70
     1
102
RTVSPropertyOp2
 70
     1
102
RTVSPropertyOp3
 70
     1
102
RTVSPropertyOp4
 70
     1
102
RTVSPropertyOp5
 70
     1
102
RTVSPropertyOp6
 70
     1
102
RTVSPropertyOp7
 70
     1
102
RTVSPropertyOp8
 70
     1
102
RTVSPropertyOp9
 70
     1
102
RTVSPropertyOp10
 70
     1
102
RTVSPropertyOp11
 70
     1
102
RTVSPropertyOp12
 70
     1
102
RTVSPropertyOp13
 70
     1
102
RTVSPropertyOp14
 70
     1
102
RTVSPropertyOp15
 70
     1
102
RTVSPropertyOp16
 70
     1
102
RTVSPropertyOp17
 70
     1
102
RTVSPropertyOp18
 70
     1
102
RTVSPropertyOp19
 70
     1
102
RTVSPropertyOp20
 70
     1
102
RTVSPropertyOp21
 70
     1
102
RTVSPropertyOp22
 70
     1
102
RTVSPropertyOp23
 70
     1
102
RTVSPropertyOp24
 70
     1
102
RTVSPropertyOp25
 70
     1
102
RTVSPropertyOp26
 70
     1
102
RTVSPropertyOp27
 70
     1
102
RTVSPropertyOp28
 70
     1
102
RTVSPropertyOp29
 70
     1
102
RTVSPropertyOp30
 70
     1
102
RTVSPropertyOp31
 70
     1
102
RTVSPropertyOp32
 70
     1
102
RTVSPropertyOp33
 70
     1
102
RTVSPropertyOp34
 70
     1
102
RTVSPropertyOp35
 70
     1
102
RTVSPropertyOp36
 70
     1
102
RTVSPropertyOp37
 70
     1
102
RTVSPropertyOp38
 70
     1
102
RTVSPropertyOp39
 70
     1
102
RTVSPropertyOp40
 70
     1
102
RTVSPropertyOp41
 70
     1
102
RTVSPropertyOp42
 70
     1
102
RTVSPropertyOp43
 70
     1
102
RTVSPropertyOp44
 70
     1
102
RTVSPropertyOp45
 70
     1
102
RTVSPropertyOp46
 70
     1
102
RTVSPropertyOp47
 70
     1
102
RTVSPropertyOp48
 70
     1
102
RTVSPropertyOp49
 70
     1
102
RTVSPropertyOp50
 70
     1
102
RTVSPropertyOp51
 70
     0
102
RTVSPropertyOp52
 70
     0
102
RTVSPropertyOp53
 70
     1
102
RTVSPropertyOp54
 70
     1
102
RTVSPropertyOp55
 70
     1
102
RTVSPropertyOp56
 70
     1
102
RTVSPropertyOp57
 70
     1
102
RTVSPost2010Prop28
280
     0
102
RTVSPost2010PropOp28
 70
     1
102
RTVSPost2010Prop29
280
     1
102
RTVSPost2010PropOp29
 70
     1
102
RTVSPost2010Prop30
280
     1
102
RTVSPost2010PropOp30
 70
     1
102
RTVSPost2010Prop31
280
     0
102
RTVSPost2010PropOp31
 70
     1
102
RTVSPost2010Prop32
280
     0
102
RTVSPost2010PropOp32
 70
     1
102
RTVSPost2010Prop33
280
     0
102
RTVSPost2010PropOp33
 70
     1
102
RTVSPost2010Prop34
280
     0
102
RTVSPost2010PropOp34
 70
     1
102
RTVSPost2010Prop35
280
     0
102
RTVSPost2010PropOp35
 70
     1
102
RTVSPost2010Prop36
280
     0
102
RTVSPost2010PropOp36
 70
     1
102
RTVSPost2010Prop37
 90
       50
102
RTVSPost2010PropOp37
 70
     1
102
RTVSPost2010Prop38
140
0.0
102
RTVSPost2010PropOp38
 70
     1
102
RTVSPost2010Prop39
140
1.0
102
RTVSPost2010PropOp39
 70
     1
102
RTVSPost2010Prop40
 90
        0
102
RTVSPost2010PropOp40
 70
     1
102
RTVSPost2010Prop41ColorIndex
 90
       18
102
RTVSPost2010Prop41ColorRGB
 90
        0
102
RTVSPost2010PropOp41
 70
     1
102
RTVSPost2010Prop42
 90
       50
102
RTVSPost2010PropOp42
 70
     1
102
RTVSPost2010Prop43
 90
        3
102
RTVSPost2010PropOp43
 70
     1
102
RTVSPost2010Prop44ColorIndex
 90
        5
102
RTVSPost2010Prop44ColorRGB
 90
      255
102
RTVSPost2010PropOp44
 70
     1
102
RTVSPost2010Prop45
280
     0
102
RTVSPost2010PropOp45
 70
     1
102
RTVSPost2010Prop46
 90
       50
102
RTVSPost2010PropOp46
 70
     1
102
RTVSPost2010Prop47
 90
       50
102
RTVSPost2010PropOp47
 70
     1
102
RTVSPost2010Prop48
 90
       50
102
RTVSPost2010PropOp48
 70
     1
102
RTVSPost2010Prop49
280
     0
102
RTVSPost2010PropOp49
 70
     1
102
RTVSPost2010Prop50
 90
       50
102
RTVSPost2010PropOp50
 70
     1
102
RTVSPost2010Prop51ColorIndex
 90
      256
102
RTVSPost2010Prop51ColorRGB
 90
-16777216
102
RTVSPost2010PropOp51
 70
     0
102
RTVSPost2010Prop52
140
1.0
102
RTVSPost2010PropOp52
 70
     0
102
RTVSPost2010Prop53
 90
        2
102
RTVSPost2010PropOp53
 70
     1
102
RTVSPost2010Prop54
  1
strokes_ogs.tif
102
RTVSPost2010PropOp54
 70
     1
102
RTVSPost2010Prop55
280
     0
102
RTVSPost2010PropOp55
 70
     1
102
RTVSPost2010Prop56
140
1.0
102
RTVSPost2010PropOp56
 70
     1
102
RTVSPost2010Prop57
140
1.0
102
RTVSPost2010PropOp57
 70
     1
  0
XRECORD
  5
DA
102
{ACAD_REACTORS
330
D9
102
}
330
D9
100
AcDbXrecord
280
     1
102
RTVSPropertyOp0
 70
     1
102
RTVSPropertyOp1
 70
     1
102
RTVSPropertyOp2
 70
     1
102
RTVSPropertyOp3
 70
     1
102
RTVSPropertyOp4
 70
     1
102
RTVSPropertyOp5
 70
     1
102
RTVSPropertyOp6
 70
     1
102
RTVSPropertyOp7
 70
     1
102
RTVSPropertyOp8
 70
     1
102
RTVSPropertyOp9
 70
     1
102
RTVSPropertyOp10
 70
     1
102
RTVSPropertyOp11
 70
     1
102
RTVSPropertyOp12
 70
     1
102
RTVSPropertyOp13
 70
     1
102
RTVSPropertyOp14
 70
     1
102
RTVSPropertyOp15
 70
     1
102
RTVSPropertyOp16
 70
     1
102
RTVSPropertyOp17
 70
     1
102
RTVSPropertyOp18
 70
     1
102
RTVSPropertyOp19
 70
     1
102
RTVSPropertyOp20
 70
     1
102
RTVSPropertyOp21
 70
     1
102
RTVSPropertyOp22
 70
     1
102
RTVSPropertyOp23
 70
     1
102
RTVSPropertyOp24
 70
     1
102
RTVSPropertyOp25
 70
     1
102
RTVSPropertyOp26
 70
     1
102
RTVSPropertyOp27
 70
     1
102
RTVSPropertyOp28
 70
     1
102
RTVSPropertyOp29
 70
     1
102
RTVSPropertyOp30
 70
     1
102
RTVSPropertyOp31
 70
     1
102
RTVSPropertyOp32
 70
     1
102
RTVSPropertyOp33
 70
     1
102
RTVSPropertyOp34
 70
     1
102
RTVSPropertyOp35
 70
     1
102
RTVSPropertyOp36
 70
     1
102
RTVSPropertyOp37
 70
     1
102
RTVSPropertyOp38
 70
     1
102
RTVSPropertyOp39
 70
     1
102
RTVSPropertyOp40
 70
     1
102
RTVSPropertyOp41
 70
     1
102
RTVSPropertyOp42
 70
     1
102
RTVSPropertyOp43
 70
     1
102
RTVSPropertyOp44
 70
     1
102
RTVSPropertyOp45
 70
     1
102
RTVSPropertyOp46
 70
     1
102
RTVSPropertyOp47
 70
     1
102
RTVSPropertyOp48
 70
     1
102
RTVSPropertyOp49
 70
     1
102
RTVSPropertyOp50
 70
     1
102
RTVSPropertyOp51
 70
     0
102
RTVSPropertyOp52
 70
     0
102
RTVSPropertyOp53
 70
     1
102
RTVSPropertyOp54
 70
     1
102
RTVSPropertyOp55
 70
     1
102
RTVSPropertyOp56
 70
     1
102
RTVSPropertyOp57
 70
     1
102
RTVSPost2010Prop28
280
     0
102
RTVSPost2010PropOp28
 70
     1
102
RTVSPost2010Prop29
280
     1
102
RTVSPost2010PropOp29
 70
     1
102
RTVSPost2010Prop30
280
     1
102
RTVSPost2010PropOp30
 70
     1
102
RTVSPost2010Prop31
280
     0
102
RTVSPost2010PropOp31
 70
     1
102
RTVSPost2010Prop32
280
     0
102
RTVSPost2010PropOp32
 70
     1
102
RTVSPost2010Prop33
280
     0
102
RTVSPost2010PropOp33
 70
     1
102
RTVSPost2010Prop34
280
     0
102
RTVSPost2010PropOp34
 70
     1
102
RTVSPost2010Prop35
280
     0
102
RTVSPost2010PropOp35
 70
     1
102
RTVSPost2010Prop36
280
     0
102
RTVSPost2010PropOp36
 70
     1
102
RTVSPost2010Prop37
 90
       50
102
RTVSPost2010PropOp37
 70
     1
102
RTVSPost2010Prop38
140
0.0
102
RTVSPost2010PropOp38
 70
     1
102
RTVSPost2010Prop39
140
1.0
102
RTVSPost2010PropOp39
 70
     1
102
RTVSPost2010Prop40
 90
        0
102
RTVSPost2010PropOp40
 70
     1
102
RTVSPost2010Prop41ColorIndex
 90
       18
102
RTVSPost2010Prop41ColorRGB
 90
        0
102
RTVSPost2010PropOp41
 70
     1
102
RTVSPost2010Prop42
 90
       50
102
RTVSPost2010PropOp42
 70
     1
102
RTVSPost2010Prop43
 90
        3
102
RTVSPost2010PropOp43
 70
     1
102
RTVSPost2010Prop44ColorIndex
 90
        5
102
RTVSPost2010Prop44ColorRGB
 90
      255
102
RTVSPost2010PropOp44
 70
     1
102
RTVSPost2010Prop45
280
     0
102
RTVSPost2010PropOp45
 70
     1
102
RTVSPost2010Prop46
 90
       50
102
RTVSPost2010PropOp46
 70
     1
102
RTVSPost2010Prop47
 90
       50
102
RTVSPost2010PropOp47
 70
     1
102
RTVSPost2010Prop48
 90
       50
102
RTVSPost2010PropOp48
 70
     1
102
RTVSPost2010Prop49
280
     0
102
RTVSPost2010PropOp49
 70
     1
102
RTVSPost2010Prop50
 90
       50
102
RTVSPost2010PropOp50
 70
     1
102
RTVSPost2010Prop51ColorIndex
 90
      256
102
RTVSPost2010Prop51ColorRGB
 90
-16777216
102
RTVSPost2010PropOp51
 70
     0
102
RTVSPost2010Prop52
140
1.0
102
RTVSPost2010PropOp52
 70
     0
102
RTVSPost2010Prop53
 90
        2
102
RTVSPost2010PropOp53
 70
     1
102
RTVSPost2010Prop54
  1
strokes_ogs.tif
102
RTVSPost2010PropOp54
 70
     1
102
RTVSPost2010Prop55
280
     0
102
RTVSPost2010PropOp55
 70
     1
102
RTVSPost2010Prop56
140
1.0
102
RTVSPost2010PropOp56
 70
     1
102
RTVSPost2010Prop57
140
1.0
102
RTVSPost2010PropOp57
 70
     1
  0
XRECORD
  5
D4
102
{ACAD_REACTORS
330
D3
102
}
330
D3
100
AcDbXrecord
280
     1
102
RTVSPropertyOp0
 70
     1
102
RTVSPropertyOp1
 70
     1
102
RTVSPropertyOp2
 70
     1
102
RTVSPropertyOp3
 70
     1
102
RTVSPropertyOp4
 70
     1
102
RTVSPropertyOp5
 70
     1
102
RTVSPropertyOp6
 70
     1
102
RTVSPropertyOp7
 70
     1
102
RTVSPropertyOp8
 70
     1
102
RTVSPropertyOp9
 70
     1
102
RTVSPropertyOp10
 70
     1
102
RTVSPropertyOp11
 70
     1
102
RTVSPropertyOp12
 70
     1
102
RTVSPropertyOp13
 70
     1
102
RTVSPropertyOp14
 70
     1
102
RTVSPropertyOp15
 70
     1
102
RTVSPropertyOp16
 70
     1
102
RTVSPropertyOp17
 70
     1
102
RTVSPropertyOp18
 70
     1
102
RTVSPropertyOp19
 70
     1
102
RTVSPropertyOp20
 70
     1
102
RTVSPropertyOp21
 70
     1
102
RTVSPropertyOp22
 70
     1
102
RTVSPropertyOp23
 70
     1
102
RTVSPropertyOp24
 70
     1
102
RTVSPropertyOp25
 70
     1
102
RTVSPropertyOp26
 70
     1
102
RTVSPropertyOp27
 70
     1
102
RTVSPropertyOp28
 70
     1
102
RTVSPropertyOp29
 70
     1
102
RTVSPropertyOp30
 70
     1
102
RTVSPropertyOp31
 70
     1
102
RTVSPropertyOp32
 70
     1
102
RTVSPropertyOp33
 70
     1
102
RTVSPropertyOp34
 70
     1
102
RTVSPropertyOp35
 70
     1
102
RTVSPropertyOp36
 70
     1
102
RTVSPropertyOp37
 70
     1
102
RTVSPropertyOp38
 70
     1
102
RTVSPropertyOp39
 70
     1
102
RTVSPropertyOp40
 70
     1
102
RTVSPropertyOp41
 70
     1
102
RTVSPropertyOp42
 70
     1
102
RTVSPropertyOp43
 70
     1
102
RTVSPropertyOp44
 70
     1
102
RTVSPropertyOp45
 70
     1
102
RTVSPropertyOp46
 70
     1
102
RTVSPropertyOp47
 70
     1
102
RTVSPropertyOp48
 70
     1
102
RTVSPropertyOp49
 70
     1
102
RTVSPropertyOp50
 70
     1
102
RTVSPropertyOp51
 70
     0
102
RTVSPropertyOp52
 70
     0
102
RTVSPropertyOp53
 70
     1
102
RTVSPropertyOp54
 70
     1
102
RTVSPropertyOp55
 70
     1
102
RTVSPropertyOp56
 70
     1
102
RTVSPropertyOp57
 70
     1
102
RTVSPost2010Prop28
280
     0
102
RTVSPost2010PropOp28
 70
     1
102
RTVSPost2010Prop29
280
     1
102
RTVSPost2010PropOp29
 70
     1
102
RTVSPost2010Prop30
280
     1
102
RTVSPost2010PropOp30
 70
     1
102
RTVSPost2010Prop31
280
     0
102
RTVSPost2010PropOp31
 70
     1
102
RTVSPost2010Prop32
280
     0
102
RTVSPost2010PropOp32
 70
     1
102
RTVSPost2010Prop33
280
     0
102
RTVSPost2010PropOp33
 70
     1
102
RTVSPost2010Prop34
280
     0
102
RTVSPost2010PropOp34
 70
     1
102
RTVSPost2010Prop35
280
     0
102
RTVSPost2010PropOp35
 70
     1
102
RTVSPost2010Prop36
280
     0
102
RTVSPost2010PropOp36
 70
     1
102
RTVSPost2010Prop37
 90
       50
102
RTVSPost2010PropOp37
 70
     1
102
RTVSPost2010Prop38
140
0.0
102
RTVSPost2010PropOp38
 70
     1
102
RTVSPost2010Prop39
140
1.0
102
RTVSPost2010PropOp39
 70
     1
102
RTVSPost2010Prop40
 90
        0
102
RTVSPost2010PropOp40
 70
     1
102
RTVSPost2010Prop41ColorIndex
 90
       18
102
RTVSPost2010Prop41ColorRGB
 90
        0
102
RTVSPost2010PropOp41
 70
     1
102
RTVSPost2010Prop42
 90
       50
102
RTVSPost2010PropOp42
 70
     1
102
RTVSPost2010Prop43
 90
        3
102
RTVSPost2010PropOp43
 70
     1
102
RTVSPost2010Prop44ColorIndex
 90
        5
102
RTVSPost2010Prop44ColorRGB
 90
      255
102
RTVSPost2010PropOp44
 70
     1
102
RTVSPost2010Prop45
280
     0
102
RTVSPost2010PropOp45
 70
     1
102
RTVSPost2010Prop46
 90
       50
102
RTVSPost2010PropOp46
 70
     1
102
RTVSPost2010Prop47
 90
       50
102
RTVSPost2010PropOp47
 70
     1
102
RTVSPost2010Prop48
 90
       50
102
RTVSPost2010PropOp48
 70
     1
102
RTVSPost2010Prop49
280
     0
102
RTVSPost2010PropOp49
 70
     1
102
RTVSPost2010Prop50
 90
       50
102
RTVSPost2010PropOp50
 70
     1
102
RTVSPost2010Prop51ColorIndex
 90
      256
102
RTVSPost2010Prop51ColorRGB
 90
-16777216
102
RTVSPost2010PropOp51
 70
     0
102
RTVSPost2010Prop52
140
1.0
102
RTVSPost2010PropOp52
 70
     0
102
RTVSPost2010Prop53
 90
        2
102
RTVSPost2010PropOp53
 70
     1
102
RTVSPost2010Prop54
  1
strokes_ogs.tif
102
RTVSPost2010PropOp54
 70
     1
102
RTVSPost2010Prop55
280
     0
102
RTVSPost2010PropOp55
 70
     1
102
RTVSPost2010Prop56
140
1.0
102
RTVSPost2010PropOp56
 70
     1
102
RTVSPost2010Prop57
140
1.0
102
RTVSPost2010PropOp57
 70
     1
  0
XRECORD
  5
D6
102
{ACAD_REACTORS
330
D5
102
}
330
D5
100
AcDbXrecord
280
     1
102
RTVSPropertyOp0
 70
     1
102
RTVSPropertyOp1
 70
     1
102
RTVSPropertyOp2
 70
     1
102
RTVSPropertyOp3
 70
     1
102
RTVSPropertyOp4
 70
     1
102
RTVSPropertyOp5
 70
     1
102
RTVSPropertyOp6
 70
     1
102
RTVSPropertyOp7
 70
     1
102
RTVSPropertyOp8
 70
     1
102
RTVSPropertyOp9
 70
     1
102
RTVSPropertyOp10
 70
     1
102
RTVSPropertyOp11
 70
     1
102
RTVSPropertyOp12
 70
     1
102
RTVSPropertyOp13
 70
     1
102
RTVSPropertyOp14
 70
     1
102
RTVSPropertyOp15
 70
     1
102
RTVSPropertyOp16
 70
     1
102
RTVSPropertyOp17
 70
     1
102
RTVSPropertyOp18
 70
     1
102
RTVSPropertyOp19
 70
     1
102
RTVSPropertyOp20
 70
     1
102
RTVSPropertyOp21
 70
     1
102
RTVSPropertyOp22
 70
     1
102
RTVSPropertyOp23
 70
     1
102
RTVSPropertyOp24
 70
     1
102
RTVSPropertyOp25
 70
     1
102
RTVSPropertyOp26
 70
     1
102
RTVSPropertyOp27
 70
     1
102
RTVSPropertyOp28
 70
     1
102
RTVSPropertyOp29
 70
     1
102
RTVSPropertyOp30
 70
     1
102
RTVSPropertyOp31
 70
     1
102
RTVSPropertyOp32
 70
     1
102
RTVSPropertyOp33
 70
     1
102
RTVSPropertyOp34
 70
     1
102
RTVSPropertyOp35
 70
     1
102
RTVSPropertyOp36
 70
     1
102
RTVSPropertyOp37
 70
     1
102
RTVSPropertyOp38
 70
     1
102
RTVSPropertyOp39
 70
     1
102
RTVSPropertyOp40
 70
     1
102
RTVSPropertyOp41
 70
     1
102
RTVSPropertyOp42
 70
     1
102
RTVSPropertyOp43
 70
     1
102
RTVSPropertyOp44
 70
     1
102
RTVSPropertyOp45
 70
     1
102
RTVSPropertyOp46
 70
     1
102
RTVSPropertyOp47
 70
     1
102
RTVSPropertyOp48
 70
     1
102
RTVSPropertyOp49
 70
     1
102
RTVSPropertyOp50
 70
     1
102
RTVSPropertyOp51
 70
     0
102
RTVSPropertyOp52
 70
     0
102
RTVSPropertyOp53
 70
     1
102
RTVSPropertyOp54
 70
     1
102
RTVSPropertyOp55
 70
     1
102
RTVSPropertyOp56
 70
     1
102
RTVSPropertyOp57
 70
     1
102
RTVSPost2010Prop28
280
     0
102
RTVSPost2010PropOp28
 70
     1
102
RTVSPost2010Prop29
280
     1
102
RTVSPost2010PropOp29
 70
     1
102
RTVSPost2010Prop30
280
     1
102
RTVSPost2010PropOp30
 70
     1
102
RTVSPost2010Prop31
280
     0
102
RTVSPost2010PropOp31
 70
     1
102
RTVSPost2010Prop32
280
     0
102
RTVSPost2010PropOp32
 70
     1
102
RTVSPost2010Prop33
280
     0
102
RTVSPost2010PropOp33
 70
     1
102
RTVSPost2010Prop34
280
     0
102
RTVSPost2010PropOp34
 70
     1
102
RTVSPost2010Prop35
280
     0
102
RTVSPost2010PropOp35
 70
     1
102
RTVSPost2010Prop36
280
     0
102
RTVSPost2010PropOp36
 70
     1
102
RTVSPost2010Prop37
 90
       50
102
RTVSPost2010PropOp37
 70
     1
102
RTVSPost2010Prop38
140
0.0
102
RTVSPost2010PropOp38
 70
     1
102
RTVSPost2010Prop39
140
1.0
102
RTVSPost2010PropOp39
 70
     1
102
RTVSPost2010Prop40
 90
        0
102
RTVSPost2010PropOp40
 70
     1
102
RTVSPost2010Prop41ColorIndex
 90
       18
102
RTVSPost2010Prop41ColorRGB
 90
        0
102
RTVSPost2010PropOp41
 70
     1
102
RTVSPost2010Prop42
 90
       50
102
RTVSPost2010PropOp42
 70
     1
102
RTVSPost2010Prop43
 90
        3
102
RTVSPost2010PropOp43
 70
     1
102
RTVSPost2010Prop44ColorIndex
 90
        5
102
RTVSPost2010Prop44ColorRGB
 90
      255
102
RTVSPost2010PropOp44
 70
     1
102
RTVSPost2010Prop45
280
     0
102
RTVSPost2010PropOp45
 70
     1
102
RTVSPost2010Prop46
 90
       50
102
RTVSPost2010PropOp46
 70
     1
102
RTVSPost2010Prop47
 90
       50
102
RTVSPost2010PropOp47
 70
     1
102
RTVSPost2010Prop48
 90
       50
102
RTVSPost2010PropOp48
 70
     1
102
RTVSPost2010Prop49
280
     0
102
RTVSPost2010PropOp49
 70
     1
102
RTVSPost2010Prop50
 90
       50
102
RTVSPost2010PropOp50
 70
     1
102
RTVSPost2010Prop51ColorIndex
 90
      256
102
RTVSPost2010Prop51ColorRGB
 90
-16777216
102
RTVSPost2010PropOp51
 70
     0
102
RTVSPost2010Prop52
140
1.0
102
RTVSPost2010PropOp52
 70
     0
102
RTVSPost2010Prop53
 90
        2
102
RTVSPost2010PropOp53
 70
     1
102
RTVSPost2010Prop54
  1
strokes_ogs.tif
102
RTVSPost2010PropOp54
 70
     1
102
RTVSPost2010Prop55
280
     0
102
RTVSPost2010PropOp55
 70
     1
102
RTVSPost2010Prop56
140
1.0
102
RTVSPost2010PropOp56
 70
     1
102
RTVSPost2010Prop57
140
1.0
102
RTVSPost2010PropOp57
 70
     1
  0
XRECORD
  5
C6
102
{ACAD_REACTORS
330
C5
102
}
330
C5
100
AcDbXrecord
280
     1
102
RTVSPropertyOp0
 70
     1
102
RTVSPropertyOp1
 70
     1
102
RTVSPropertyOp2
 70
     1
102
RTVSPropertyOp3
 70
     1
102
RTVSPropertyOp4
 70
     1
102
RTVSPropertyOp5
 70
     1
102
RTVSPropertyOp6
 70
     1
102
RTVSPropertyOp7
 70
     1
102
RTVSPropertyOp8
 70
     1
102
RTVSPropertyOp9
 70
     1
102
RTVSPropertyOp10
 70
     1
102
RTVSPropertyOp11
 70
     1
102
RTVSPropertyOp12
 70
     1
102
RTVSPropertyOp13
 70
     1
102
RTVSPropertyOp14
 70
     1
102
RTVSPropertyOp15
 70
     1
102
RTVSPropertyOp16
 70
     1
102
RTVSPropertyOp17
 70
     1
102
RTVSPropertyOp18
 70
     1
102
RTVSPropertyOp19
 70
     1
102
RTVSPropertyOp20
 70
     1
102
RTVSPropertyOp21
 70
     1
102
RTVSPropertyOp22
 70
     1
102
RTVSPropertyOp23
 70
     1
102
RTVSPropertyOp24
 70
     1
102
RTVSPropertyOp25
 70
     1
102
RTVSPropertyOp26
 70
     1
102
RTVSPropertyOp27
 70
     1
102
RTVSPropertyOp28
 70
     1
102
RTVSPropertyOp29
 70
     1
102
RTVSPropertyOp30
 70
     1
102
RTVSPropertyOp31
 70
     1
102
RTVSPropertyOp32
 70
     1
102
RTVSPropertyOp33
 70
     1
102
RTVSPropertyOp34
 70
     1
102
RTVSPropertyOp35
 70
     1
102
RTVSPropertyOp36
 70
     1
102
RTVSPropertyOp37
 70
     1
102
RTVSPropertyOp38
 70
     1
102
RTVSPropertyOp39
 70
     1
102
RTVSPropertyOp40
 70
     1
102
RTVSPropertyOp41
 70
     1
102
RTVSPropertyOp42
 70
     1
102
RTVSPropertyOp43
 70
     1
102
RTVSPropertyOp44
 70
     1
102
RTVSPropertyOp45
 70
     1
102
RTVSPropertyOp46
 70
     1
102
RTVSPropertyOp47
 70
     1
102
RTVSPropertyOp48
 70
     1
102
RTVSPropertyOp49
 70
     1
102
RTVSPropertyOp50
 70
     1
102
RTVSPropertyOp51
 70
     0
102
RTVSPropertyOp52
 70
     0
102
RTVSPropertyOp53
 70
     1
102
RTVSPropertyOp54
 70
     1
102
RTVSPropertyOp55
 70
     1
102
RTVSPropertyOp56
 70
     1
102
RTVSPropertyOp57
 70
     1
102
RTVSPost2010Prop28
280
     0
102
RTVSPost2010PropOp28
 70
     1
102
RTVSPost2010Prop29
280
     1
102
RTVSPost2010PropOp29
 70
     1
102
RTVSPost2010Prop30
280
     1
102
RTVSPost2010PropOp30
 70
     1
102
RTVSPost2010Prop31
280
     0
102
RTVSPost2010PropOp31
 70
     1
102
RTVSPost2010Prop32
280
     0
102
RTVSPost2010PropOp32
 70
     1
102
RTVSPost2010Prop33
280
     0
102
RTVSPost2010PropOp33
 70
     1
102
RTVSPost2010Prop34
280
     0
102
RTVSPost2010PropOp34
 70
     1
102
RTVSPost2010Prop35
280
     0
102
RTVSPost2010PropOp35
 70
     1
102
RTVSPost2010Prop36
280
     0
102
RTVSPost2010PropOp36
 70
     1
102
RTVSPost2010Prop37
 90
       50
102
RTVSPost2010PropOp37
 70
     1
102
RTVSPost2010Prop38
140
0.0
102
RTVSPost2010PropOp38
 70
     1
102
RTVSPost2010Prop39
140
1.0
102
RTVSPost2010PropOp39
 70
     1
102
RTVSPost2010Prop40
 90
        0
102
RTVSPost2010PropOp40
 70
     1
102
RTVSPost2010Prop41ColorIndex
 90
       18
102
RTVSPost2010Prop41ColorRGB
 90
        0
102
RTVSPost2010PropOp41
 70
     1
102
RTVSPost2010Prop42
 90
       50
102
RTVSPost2010PropOp42
 70
     1
102
RTVSPost2010Prop43
 90
        3
102
RTVSPost2010PropOp43
 70
     1
102
RTVSPost2010Prop44ColorIndex
 90
        5
102
RTVSPost2010Prop44ColorRGB
 90
      255
102
RTVSPost2010PropOp44
 70
     1
102
RTVSPost2010Prop45
280
     0
102
RTVSPost2010PropOp45
 70
     1
102
RTVSPost2010Prop46
 90
       50
102
RTVSPost2010PropOp46
 70
     1
102
RTVSPost2010Prop47
 90
       50
102
RTVSPost2010PropOp47
 70
     1
102
RTVSPost2010Prop48
 90
       50
102
RTVSPost2010PropOp48
 70
     1
102
RTVSPost2010Prop49
280
     0
102
RTVSPost2010PropOp49
 70
     1
102
RTVSPost2010Prop50
 90
       50
102
RTVSPost2010PropOp50
 70
     1
102
RTVSPost2010Prop51ColorIndex
 90
      256
102
RTVSPost2010Prop51ColorRGB
 90
-16777216
102
RTVSPost2010PropOp51
 70
     0
102
RTVSPost2010Prop52
140
1.0
102
RTVSPost2010PropOp52
 70
     0
102
RTVSPost2010Prop53
 90
        2
102
RTVSPost2010PropOp53
 70
     1
102
RTVSPost2010Prop54
  1
strokes_ogs.tif
102
RTVSPost2010PropOp54
 70
     1
102
RTVSPost2010Prop55
280
     0
102
RTVSPost2010PropOp55
 70
     1
102
RTVSPost2010Prop56
140
1.0
102
RTVSPost2010PropOp56
 70
     1
102
RTVSPost2010Prop57
140
1.0
102
RTVSPost2010PropOp57
 70
     1
  0
XRECORD
  5
B8
102
{ACAD_REACTORS
330
B7
102
}
330
B7
100
AcDbXrecord
280
     1
102
RTVSPropertyOp0
 70
     1
102
RTVSPropertyOp1
 70
     1
102
RTVSPropertyOp2
 70
     1
102
RTVSPropertyOp3
 70
     1
102
RTVSPropertyOp4
 70
     1
102
RTVSPropertyOp5
 70
     1
102
RTVSPropertyOp6
 70
     1
102
RTVSPropertyOp7
 70
     1
102
RTVSPropertyOp8
 70
     1
102
RTVSPropertyOp9
 70
     1
102
RTVSPropertyOp10
 70
     1
102
RTVSPropertyOp11
 70
     1
102
RTVSPropertyOp12
 70
     1
102
RTVSPropertyOp13
 70
     1
102
RTVSPropertyOp14
 70
     1
102
RTVSPropertyOp15
 70
     1
102
RTVSPropertyOp16
 70
     1
102
RTVSPropertyOp17
 70
     1
102
RTVSPropertyOp18
 70
     1
102
RTVSPropertyOp19
 70
     1
102
RTVSPropertyOp20
 70
     1
102
RTVSPropertyOp21
 70
     1
102
RTVSPropertyOp22
 70
     1
102
RTVSPropertyOp23
 70
     1
102
RTVSPropertyOp24
 70
     1
102
RTVSPropertyOp25
 70
     1
102
RTVSPropertyOp26
 70
     1
102
RTVSPropertyOp27
 70
     1
102
RTVSPropertyOp28
 70
     1
102
RTVSPropertyOp29
 70
     1
102
RTVSPropertyOp30
 70
     1
102
RTVSPropertyOp31
 70
     1
102
RTVSPropertyOp32
 70
     1
102
RTVSPropertyOp33
 70
     1
102
RTVSPropertyOp34
 70
     1
102
RTVSPropertyOp35
 70
     1
102
RTVSPropertyOp36
 70
     1
102
RTVSPropertyOp37
 70
     1
102
RTVSPropertyOp38
 70
     1
102
RTVSPropertyOp39
 70
     1
102
RTVSPropertyOp40
 70
     1
102
RTVSPropertyOp41
 70
     1
102
RTVSPropertyOp42
 70
     1
102
RTVSPropertyOp43
 70
     1
102
RTVSPropertyOp44
 70
     1
102
RTVSPropertyOp45
 70
     1
102
RTVSPropertyOp46
 70
     1
102
RTVSPropertyOp47
 70
     1
102
RTVSPropertyOp48
 70
     1
102
RTVSPropertyOp49
 70
     1
102
RTVSPropertyOp50
 70
     1
102
RTVSPropertyOp51
 70
     0
102
RTVSPropertyOp52
 70
     0
102
RTVSPropertyOp53
 70
     1
102
RTVSPropertyOp54
 70
     1
102
RTVSPropertyOp55
 70
     1
102
RTVSPropertyOp56
 70
     1
102
RTVSPropertyOp57
 70
     1
102
RTVSPost2010Prop28
280
     0
102
RTVSPost2010PropOp28
 70
     1
102
RTVSPost2010Prop29
280
     1
102
RTVSPost2010PropOp29
 70
     1
102
RTVSPost2010Prop30
280
     1
102
RTVSPost2010PropOp30
 70
     1
102
RTVSPost2010Prop31
280
     0
102
RTVSPost2010PropOp31
 70
     1
102
RTVSPost2010Prop32
280
     0
102
RTVSPost2010PropOp32
 70
     1
102
RTVSPost2010Prop33
280
     0
102
RTVSPost2010PropOp33
 70
     1
102
RTVSPost2010Prop34
280
     0
102
RTVSPost2010PropOp34
 70
     1
102
RTVSPost2010Prop35
280
     0
102
RTVSPost2010PropOp35
 70
     1
102
RTVSPost2010Prop36
280
     0
102
RTVSPost2010PropOp36
 70
     1
102
RTVSPost2010Prop37
 90
       50
102
RTVSPost2010PropOp37
 70
     1
102
RTVSPost2010Prop38
140
0.0
102
RTVSPost2010PropOp38
 70
     1
102
RTVSPost2010Prop39
140
1.0
102
RTVSPost2010PropOp39
 70
     1
102
RTVSPost2010Prop40
 90
        0
102
RTVSPost2010PropOp40
 70
     1
102
RTVSPost2010Prop41ColorIndex
 90
       18
102
RTVSPost2010Prop41ColorRGB
 90
        0
102
RTVSPost2010PropOp41
 70
     1
102
RTVSPost2010Prop42
 90
       50
102
RTVSPost2010PropOp42
 70
     1
102
RTVSPost2010Prop43
 90
        3
102
RTVSPost2010PropOp43
 70
     1
102
RTVSPost2010Prop44ColorIndex
 90
        5
102
RTVSPost2010Prop44ColorRGB
 90
      255
102
RTVSPost2010PropOp44
 70
     1
102
RTVSPost2010Prop45
280
     0
102
RTVSPost2010PropOp45
 70
     1
102
RTVSPost2010Prop46
 90
       50
102
RTVSPost2010PropOp46
 70
     1
102
RTVSPost2010Prop47
 90
       50
102
RTVSPost2010PropOp47
 70
     1
102
RTVSPost2010Prop48
 90
       50
102
RTVSPost2010PropOp48
 70
     1
102
RTVSPost2010Prop49
280
     0
102
RTVSPost2010PropOp49
 70
     1
102
RTVSPost2010Prop50
 90
       50
102
RTVSPost2010PropOp50
 70
     1
102
RTVSPost2010Prop51ColorIndex
 90
      256
102
RTVSPost2010Prop51ColorRGB
 90
-16777216
102
RTVSPost2010PropOp51
 70
     0
102
RTVSPost2010Prop52
140
1.0
102
RTVSPost2010PropOp52
 70
     0
102
RTVSPost2010Prop53
 90
        2
102
RTVSPost2010PropOp53
 70
     1
102
RTVSPost2010Prop54
  1
strokes_ogs.tif
102
RTVSPost2010PropOp54
 70
     1
102
RTVSPost2010Prop55
280
     0
102
RTVSPost2010PropOp55
 70
     1
102
RTVSPost2010Prop56
140
1.0
102
RTVSPost2010PropOp56
 70
     1
102
RTVSPost2010Prop57
140
1.0
102
RTVSPost2010PropOp57
 70
     1
  0
XRECORD
  5
D8
102
{ACAD_REACTORS
330
D7
102
}
330
D7
100
AcDbXrecord
280
     1
102
RTVSPropertyOp0
 70
     1
102
RTVSPropertyOp1
 70
     1
102
RTVSPropertyOp2
 70
     1
102
RTVSPropertyOp3
 70
     1
102
RTVSPropertyOp4
 70
     1
102
RTVSPropertyOp5
 70
     1
102
RTVSPropertyOp6
 70
     1
102
RTVSPropertyOp7
 70
     1
102
RTVSPropertyOp8
 70
     1
102
RTVSPropertyOp9
 70
     1
102
RTVSPropertyOp10
 70
     1
102
RTVSPropertyOp11
 70
     1
102
RTVSPropertyOp12
 70
     1
102
RTVSPropertyOp13
 70
     1
102
RTVSPropertyOp14
 70
     1
102
RTVSPropertyOp15
 70
     1
102
RTVSPropertyOp16
 70
     1
102
RTVSPropertyOp17
 70
     1
102
RTVSPropertyOp18
 70
     1
102
RTVSPropertyOp19
 70
     1
102
RTVSPropertyOp20
 70
     1
102
RTVSPropertyOp21
 70
     1
102
RTVSPropertyOp22
 70
     1
102
RTVSPropertyOp23
 70
     1
102
RTVSPropertyOp24
 70
     1
102
RTVSPropertyOp25
 70
     1
102
RTVSPropertyOp26
 70
     1
102
RTVSPropertyOp27
 70
     1
102
RTVSPropertyOp28
 70
     1
102
RTVSPropertyOp29
 70
     1
102
RTVSPropertyOp30
 70
     1
102
RTVSPropertyOp31
 70
     1
102
RTVSPropertyOp32
 70
     1
102
RTVSPropertyOp33
 70
     1
102
RTVSPropertyOp34
 70
     1
102
RTVSPropertyOp35
 70
     1
102
RTVSPropertyOp36
 70
     1
102
RTVSPropertyOp37
 70
     1
102
RTVSPropertyOp38
 70
     1
102
RTVSPropertyOp39
 70
     1
102
RTVSPropertyOp40
 70
     1
102
RTVSPropertyOp41
 70
     1
102
RTVSPropertyOp42
 70
     1
102
RTVSPropertyOp43
 70
     1
102
RTVSPropertyOp44
 70
     1
102
RTVSPropertyOp45
 70
     1
102
RTVSPropertyOp46
 70
     1
102
RTVSPropertyOp47
 70
     1
102
RTVSPropertyOp48
 70
     1
102
RTVSPropertyOp49
 70
     1
102
RTVSPropertyOp50
 70
     1
102
RTVSPropertyOp51
 70
     0
102
RTVSPropertyOp52
 70
     0
102
RTVSPropertyOp53
 70
     1
102
RTVSPropertyOp54
 70
     1
102
RTVSPropertyOp55
 70
     1
102
RTVSPropertyOp56
 70
     1
102
RTVSPropertyOp57
 70
     1
102
RTVSPost2010Prop28
280
     0
102
RTVSPost2010PropOp28
 70
     1
102
RTVSPost2010Prop29
280
     1
102
RTVSPost2010PropOp29
 70
     1
102
RTVSPost2010Prop30
280
     1
102
RTVSPost2010PropOp30
 70
     1
102
RTVSPost2010Prop31
280
     0
102
RTVSPost2010PropOp31
 70
     1
102
RTVSPost2010Prop32
280
     0
102
RTVSPost2010PropOp32
 70
     1
102
RTVSPost2010Prop33
280
     0
102
RTVSPost2010PropOp33
 70
     1
102
RTVSPost2010Prop34
280
     0
102
RTVSPost2010PropOp34
 70
     1
102
RTVSPost2010Prop35
280
     0
102
RTVSPost2010PropOp35
 70
     1
102
RTVSPost2010Prop36
280
     0
102
RTVSPost2010PropOp36
 70
     1
102
RTVSPost2010Prop37
 90
       50
102
RTVSPost2010PropOp37
 70
     1
102
RTVSPost2010Prop38
140
0.0
102
RTVSPost2010PropOp38
 70
     1
102
RTVSPost2010Prop39
140
1.0
102
RTVSPost2010PropOp39
 70
     1
102
RTVSPost2010Prop40
 90
        0
102
RTVSPost2010PropOp40
 70
     1
102
RTVSPost2010Prop41ColorIndex
 90
       18
102
RTVSPost2010Prop41ColorRGB
 90
        0
102
RTVSPost2010PropOp41
 70
     1
102
RTVSPost2010Prop42
 90
       50
102
RTVSPost2010PropOp42
 70
     1
102
RTVSPost2010Prop43
 90
        3
102
RTVSPost2010PropOp43
 70
     1
102
RTVSPost2010Prop44ColorIndex
 90
        5
102
RTVSPost2010Prop44ColorRGB
 90
      255
102
RTVSPost2010PropOp44
 70
     1
102
RTVSPost2010Prop45
280
     0
102
RTVSPost2010PropOp45
 70
     1
102
RTVSPost2010Prop46
 90
       50
102
RTVSPost2010PropOp46
 70
     1
102
RTVSPost2010Prop47
 90
       50
102
RTVSPost2010PropOp47
 70
     1
102
RTVSPost2010Prop48
 90
       50
102
RTVSPost2010PropOp48
 70
     1
102
RTVSPost2010Prop49
280
     0
102
RTVSPost2010PropOp49
 70
     1
102
RTVSPost2010Prop50
 90
       50
102
RTVSPost2010PropOp50
 70
     1
102
RTVSPost2010Prop51ColorIndex
 90
      256
102
RTVSPost2010Prop51ColorRGB
 90
-16777216
102
RTVSPost2010PropOp51
 70
     0
102
RTVSPost2010Prop52
140
1.0
102
RTVSPost2010PropOp52
 70
     0
102
RTVSPost2010Prop53
 90
        2
102
RTVSPost2010PropOp53
 70
     1
102
RTVSPost2010Prop54
  1
strokes_ogs.tif
102
RTVSPost2010PropOp54
 70
     1
102
RTVSPost2010Prop55
280
     0
102
RTVSPost2010PropOp55
 70
     1
102
RTVSPost2010Prop56
140
1.0
102
RTVSPost2010PropOp56
 70
     1
102
RTVSPost2010Prop57
140
1.0
102
RTVSPost2010PropOp57
 70
     1
  0
ENDSEC
  0
EOF
